Song name
# A B C D E F G H I J K L M N O P Q R S T U V W X Y Z

Claude Sirois - Venez Divin Messie tab

Help us improve GuitareTab! Take a short survey!
   venez divin messie  écrit par Claude Sirois

    transcrit en tablature  par Steve Morin

     Guitare classique

 |       |       |        |       |       |        |       |       |        
|------------------------|------------------------|0---------------0-------|
|------------------------|1---------------3-------|1-------3---------------|
|----------------0-------|0-----------------------|2-----------------------|
|------------------------|2-----------------------|------------------------|
|------------------------|2-----------------------|0-----------------------|
|------------------------|------------------------|------------------------|
 
 |       |       |        |       |       |        |       |       |        
|1-----------------------|0-----------------------|------------------------|
|1-----------------------|1---------------3-------|1---------------0-------|
|2-----------------------|0-----------------------|2-----------------------|
|3-----------------------|------------------------|2-----------------------|
|------------------------|3-----------------------|0-----------------------|
|------------------------|------------------------|------------------------|
 
 |       |       |        |       |       |        |       |       |        
|------------------------|------------------------|------------------------|
|--------0-------1-------|0-----------------------|------------------------|
|2-----------------------|0---------------2-------|0---------------0-------|
|0-----------------------|0-----------------------|3-----------------------|
|------------------------|------------------------|------------------------|
|2-----------------------|3-----------------------|3-----------------------|
 
 |       |       |        |       |       |        |       |       |        
|------------------------|0---------------0-------|1-----------------------|
|1---------------3-------|1-------3---------------|1-----------------------|
|0-----------------------|2-----------------------|2-----------------------|
|2-----------------------|------------------------|3-----------------------|
|2-----------------------|0-----------------------|------------------------|
|------------------------|------------------------|------------------------|
 
 |       |       |        |       |       |        |       |       |        
|0---------------3-------|1---------------0-------|------------------------|
|1-----------------------|1-----------------------|3-------1-------0-------|
|0-----------------------|2-----------------------|0-----------------------|
|------------------------|0-----------------------|3-----------------------|
|3-----------------------|------------------------|------------------------|
|------------------------|------------------------|3-----------------------|
 
 |       |       |        |       |       |        |       |       |        
|------------------------|------------------------|------------------------|
|1-----------------------|------------------------|3-----------------------|
|0-----------------------|------------------------|0-----------------------|
|2-----------------------|------------------------|0-----------------------|
|3-----------------------|------------------------|------------------------|
|------------------------|------------------------|3-----------------------|
 
 |       |       |        |       |       |        |       |       |        
|------------------------|------------------------|------------------------|
|1---------------0-------|1-----------------------|----------------1-------|
|0-----------------------|0-----------------------|0-----------------------|
|0-----------------------|2-----------------------|2-----------------------|
|------------------------|3-----------------------|3-----------------------|
|3-----------------------|------------------------|------------------------|
 
 |       |       |        |       |       |        |       |       |        
|--------0---------------|------------------------|------------------------|
|3---------------3-------|1---------------0-------|1-----------------------|
|0-----------------------|0-----------------------|0-----------------------|
|0-----------------------|0-----------------------|2-----------------------|
|------------------------|------------------------|3-----------------------|
|3-----------------------|3-----------------------|------------------------|
 
 |       |       |        |       |       |        |       |       |        
|----------------3-------|1---------------0-------|----------------3-------|
|1-----------------------|1-----------------------|3-----------------------|
|0-----------------------|2-----------------------|0-----------------------|
|2-----------------------|3-----------------------|3-----------------------|
|3-----------------------|------------------------|------------------------|
|------------------------|------------------------|3-----------------------|
 
 |       |       |        |       |       |        |       |       |        
|1---------------0-------|------------------------|1---------------0-------|
|1-----------------------|3---------------0-------|1-----------------------|
|2-----------------------|0-----------------------|2-----------------------|
|3-----------------------|3-----------------------|0-----------------------|
|------------------------|------------------------|------------------------|
|------------------------|3-----------------------|------------------------|
 
 |       |       |        |       |       |        |       |       |        
|------------------------|------------------------|------------------------|
|3---------------1-------|1-------0-------1-------|3-----------------------|
|2-----------------------|2-----------------------|0-----------------------|
|0-----------------------|0-----------------------|3-----------------------|
|------------------------|------------------------|------------------------|
|2-----------------------|2-----------------------|3-----------------------|
 
 |       |       |        |       |       |        |       |       |        
|------------------------|------------------------|0---------------0-------|
|------------------------|1---------------3-------|1-------3---------------|
|0---------------0-------|0-----------------------|2-----------------------|
|3-----------------------|2-----------------------|------------------------|
|------------------------|3-----------------------|0-----------------------|
|3-----------------------|------------------------|------------------------|
 
 |       |       |        |       |       |        |       |       |        
|1-----------------------|0-----------------------|------------------------|
|1-----------------------|1---------------3-------|1---------------0-------|
|2-----------------------|0-----------------------|2-----------------------|
|3-----------------------|------------------------|2-----------------------|
|------------------------|3-----------------------|0-----------------------|
|------------------------|------------------------|------------------------|
 
 |       |       |        |       |       |        |       |       |        
|------------------------|------------------------|------------------------|
|--------0-------1-------|0-----------------------|------------------------|
|2-----------------------|----------------2-------|0---------------0-------|
|0-----------------------|0-----------------------|3-----------------------|
|------------------------|------------------------|------------------------|
|2-----------------------|3-----------------------|3-----------------------|
 
 |       |       |        |       |       |        |       |       |        
|------------------------|0---------------0-------|1-----------------------|
|1---------------3-------|1-------3---------------|1-----------------------|
|0-----------------------|2-----------------------|2-----------------------|
|2-----------------------|------------------------|3-----------------------|
|3-----------------------|0-----------------------|------------------------|
|------------------------|------------------------|------------------------|
 
 |       |       |        |       |       |        |       |       |        
|0---------------3-------|1---------------0-------|------------------------|
|1-----------------------|1-----------------------|3-------1-------0-------|
|0-----------------------|2-----------------------|0-----------------------|
|------------------------|0-----------------------|3-----------------------|
|3-----------------------|------------------------|------------------------|
|------------------------|------------------------|3-----------------------|
 
 |       |       |        
|------------------------|
|1-----------------------|
|0-----------------------|
|2-----------------------|
|3-----------------------|
|------------------------|

ompom020366@hotmail.com
Related for Venez Divin Messie tab