Song name
# A B C D E F G H I J K L M N O P Q R S T U V W X Y Z

Claude Sirois - Sur Le Pont Davignon tab

    sur le pont d'avignon arrangement de claude sirois

     ecrit en tablature par steve morin


|       |       |       |        |       |       |       |        
|--------------------------------|--0---1---3---------------------|
|--1---1---1-------3---3---3-----|--------------1---0---1---3-----|
|--------------------------------|------------------------------0-|
|------2-------2-----------0-----|------0---2---------------------|
|--3-------3-----------2---------|--3-----------3-------0---2-----|
|------------------3-----------3-|------------------3-----------3-|
 
 |       |       |       |        |       |       |       |        
|--------------------------------|--0---1---3---------------------|
|--1---1---1-------3---3---3-----|--------------1---3---0---1-----|
|--------------------------------|--------------------------------|
|------2-------2-----------0-----|------0---2---------------------|
|--3-------3-----------2---------|--3-----------3-------2---3-----|
|------------------3-----------3-|------------------3-------------|
 
 |       |       |       |        |       |       |       |        
|--------------------------------|--0---1---3---------------------|
|--1---1---1-------3---3---3-----|--------------1---0---1---3-----|
|--------------------------------|------------------------------0-|
|------2-------2-----------0-----|------0---2---------------------|
|--3-------3-----------2---------|--3-----------3-------0---2-----|
|------------------3-----------3-|------------------3-----------3-|
 
 |       |       |       |        |       |       |       |        
|--------------------------------|--0---1---3---------------------|
|--1---1---1-------3---3---3-----|--------------1---3---0---1-----|
|--------------------------------|--------------------------------|
|------2-------2-----------0-----|------0---2---------------------|
|--3-------3-----------2---------|--3-----------3-------2---3-----|
|------------------3-----------3-|------------------3-------------|

pompom020366@hotmail.com
Tap to rate this tab
# A B C D E F G H I J K L M N O P Q R S T U V W X Y Z