Song name
# A B C D E F G H I J K L M N O P Q R S T U V W X Y Z

Claude Sirois - Savez-vous Planter Des Choux tab

  savez-vous planter des choux, arrangement par claude sirois

  écrit en tablature par steve morin


|       |       |       |        |       |       |       |        
|--------------------------------|--------------------------------|
|--3---5---7---3---5-------5---7-|--8-------8-------7-------7-----|
|--------------------------------|--------------------------------|
|--0-----------------------------|------------------0-------------|
|------------------0-------------|--0-----------------------------|
|--------------------------------|--------------------------------|
 
 |       |       |       |        |       |       |       |        
|--------------------------------|--------------------------------|
|--3---5---7---3---5-------5---7-|--8-------10------3-------------|
|--------------------------------|--------------------------------|
|--0-----------------------------|------------------0-------------|
|------------------0-------------|--0-----------------------------|
|--------------------------------|--------------------------------|
 
 |       |       |       |        |       |       |       |        
|--------------------------------|--------------------------------|
|--10------10--8---7-------5---7-|--8-------10------5-------------|
|--------------------------------|--------------------------------|
|--0---------------0-------------|--------------------------------|
|--------------------------------|--0---------------0-------------|
|--------------------------------|--------------------------------|
 
 |       |       |       |        |       |       |       |        
|--------------------------------|--------------------------------|
|--10------10--8---7-------5---7-|--8-------10------5-------------|
|--------------------------------|--------------------------------|
|--0---------------0-------------|--------------------------------|
|--------------------------------|--0---------------0-------------|
|--------------------------------|--------------------------------|
 
 |       |       |       |        |       |       |       |        
|--------------------------------|--------------------------------|
|--3---5---7---3---5-------5---7-|--8-------8-------7-------7-----|
|--------------------------------|--------------------------------|
|--0-----------------------------|------------------0-------------|
|------------------0-------------|--0-----------------------------|
|--------------------------------|--------------------------------|
 
 |       |       |       |        |       |       |       |        
|--------------------------------|--------------------------------|
|--3---5---7---3---5-------5---7-|--8-------10------3-------------|
|--------------------------------|--------------------------------|
|--0-----------------------------|------------------0-------------|
|------------------0-------------|--0-----------------------------|
|--------------------------------|--------------------------------|


pompom020366@hotmail.com
Tap to rate this tab
# A B C D E F G H I J K L M N O P Q R S T U V W X Y Z