Song name
# A B C D E F G H I J K L M N O P Q R S T U V W X Y Z

Claude Sirois - Place Daiguillon tab

  Place d'aiguillon écrit par Claude Sirois

  transcrit en tablature par Steve Morin


 |       |       |       |        |       |       |       |        
|--------------------------------|--------------------------------|
|----------5-------5-------5-----|----------4-------5-------4-----|
|--------------------------------|--------------------------------|
|------6-------6-------6-------6-|------5-------5-------5---------|
|--4-----------------------------|--4-----------------------------|
|--------------------------------|--------------------------------|
 
 |       |       |       |        |       |       |       |        
|--------------------------------|--------------------------------|
|----------4-------5-------4-----|----------2-------5-------2-----|
|--------------------------------|--------------------------------|
|------4-------4-------4-------4-|------2-------2-------2---------|
|--4-----------------------------|--4-----------------------------|
|--------------------------------|--------------------------------|
 
 |       |       |       |        |       |       |       |        
|------------------0-------------|--------------------------------|
|----------2---------------2-----|----------2-------5-------2-----|
|--------------------------------|--------------------------------|
|------2-------2-------2-------2-|------2-------2-------2-------2-|
|--0-----------------------------|--------------------------------|
|--------------------------------|--4-----------------------------|
 
 |       |       |       |        |       |       |       |        
|--------------------------------|--------------------------------|
|----------2-------5-------2-----|----------2-------5-------4-----|
|--------------------------------|--------------------------------|
|------2-------2-------2-------2-|------4-------4-------4---------|
|--------------------------------|--------------------------------|
|--3-----------------------------|--4-----------------------------|
 
 |       |       |       |        |       |       |       |        
|--------------------------------|----------3-----------3-------3-|
|--------------------------------|----------5-----------5-------5-|
|--------------------------------|--------------------------------|
|--------0-----0---2-------0---2-|------5-----------5-------5-----|
|------3---------------3---------|--3-----------3-----------------|
|--------------------------------|--------------8-----------------|
 
 |       |       |       |        |       |       |       |        
|--------------------------------|----------1-----------1-------1-|
|--------------------------------|----------1-----------1-------1-|
|--------------------------------|------2-----------2-------2-----|
|--------0-----0---2-------------|--------------------------------|
|--3---3---------------3---0-----|--------------------------------|
|------------------------------3-|--1-----------1-----------------|
 
 |       |       |       |        |       |       |       |        
|--------------------------------|----------4-----------4-------4-|
|--------------------------------|----------4-----------4-------4-|
|--------------------------------|------5-----------5-------5-----|
|--------------------------------|--------------------------------|
|------------------0-----------0-|--------------------------------|
|--1---1-3-1---3-------1---3-----|--4-----------4-----------------|
 
 |       |       |       |        |       |       |       |        
|--------------------------------|----------4-----------4-------4-|
|--------------------------------|----------5-----------5-------5-|
|------1---2---1-----------------|--------------------------------|
|------------------4---2---1---2-|------6-----------6-------6-----|
|--------------------------------|--4-----------4-----------------|
|--4-----------------------------|--------------------------------|
 
 |       |       |       |        |       |       |       |        
|--------------------------------|----------4-----------4-------4-|
|--------------------------------|----------5-----------5-------5-|
|--------------------------------|--------------------------------|
|--------1-----1---2-------1---2-|------6-----------6-------6-----|
|--4---4---------------4---------|--4-----------4-----------------|
|--------------------------------|--------------------------------|
 
 |       |       |       |        |       |       |       |        
|--------------------------------|----------2-----------2-------2-|
|--------------------------------|----------2-----------2-------2-|
|--------------------------------|------2-----------2-------2-----|
|--------1-----1---2-------------|--------------------------------|
|--4---4---------------4---0-----|--------------------------------|
|------------------------------4-|--2-----------2-----------------|
 
 |       |       |       |        |       |       |       |        
|--------------------------------|----------4-----------4-------4-|
|--------------------------------|----------4-----------4-------4-|
|--------------------------------|------5-----------5-------5-----|
|--------------------------------|--------------------------------|
|------------------0-----------0-|--------------------------------|
|--2---2-4-2---4-------2---4-----|--4-----------4-----------------|
 
 |       |       |       |        |       |       |       |        
|--------------------------------|----------4-----------4-------4-|
|--------------------------------|----------5-----------5-------5-|
|------1---2---1-----------------|--------------------------------|
|------------------4---2---1---2-|------6-----------6-------6-----|
|--------------------------------|--4-----------4-----------------|
|--4-----------------------------|--------------------------------|
 
 |       |       |       |        |       |       |       |        
|--------------------------------|--------------------------------|
|----------4-----------4-------4-|----------2-----------2-------2-|
|----------3-----------3-------3-|----------1-----------1-------1-|
|------4-----------4-------4-----|------2-----------2-------2-----|
|--2-----------2-----------------|--1-----------1-----------------|
|--------------------------------|--------------------------------|
 
 |       |       |       |        |       |       |       |        
|--2-------5-------8-------11----|--9---9-9-9---11--12--9---11--12|
|--1-------4-------7-------10----|--9-----------------------------|
|------2-------5-------8-------11|--9-----------------------------|
|--1-------4-------7-------10----|--------------------------------|
|--------------------------------|--------------------------------|
|--------------------------------|--9-9---------------------------|
 
 |       |       |       |        |       |       |       |        
|----------9-----------9-------9-|------9-9-9---11--12--9---11--12|
|----------9-----------9-------9-|--------------------------------|
|------9-----------9-------9-----|--------------------------------|
|--------------------------------|--------------------------------|
|--------------------------------|--------------------------------|
|--9-----------9-----------------|--9-9---------------------------|
 
 |       |       |       |        |       |       |       |        
|----------9-----------9-------9-|------9-9-9---11--12--9---11--12|
|----------9-----------9-------9-|--------------------------------|
|--------------------------------|--------------------------------|
|------11----------11------11----|--------------------------------|
|--9-----------9-----------------|--9-9---------------------------|
|--------------------------------|--------------------------------|
 
 |       |       |       |        |       |       |       |        
|----------4---------------4-----|--4---4---5---4-----------------|
|----------7---------------7-----|--7---------------7---5---4---5-|
|------5-------5-------5-------5-|--5-----------------------------|
|--6---------------6-------------|--6-----------------------------|
|--------------------------------|--------------------------------|
|--------------------------------|--------------------------------|
 
 |       |       |       |        |       |       |       |        
|----------9-----------9-------9-|------9-9-9---11--12--9---11--12|
|----------9-----------9-------9-|--------------------------------|
|------9-----------9-------9-----|--------------------------------|
|--------------------------------|--------------------------------|
|--------------------------------|--------------------------------|
|--9-----------9-----------------|--9-9---------------------------|
 
 |       |       |       |        |       |       |       |        
|----------11----------11------11|------9-9-9---11--12--9---11--12|
|----------9-----------9-------9-|--------------------------------|
|------9-----------9-------9-----|--------------------------------|
|--------------------------------|--------------------------------|
|--------------------------------|--------------------------------|
|--9-----------9-----------------|--9-9---------------------------|
 
 |       |       |       |        |       |       |       |        
|----------11----------11------11|------9-9-9---11--12--9---11--12|
|----------10----------10------10|--------------------------------|
|--------------------------------|--------------------------------|
|------11----------11------11----|--------------------------------|
|--9-----------9-----------------|--------------------------------|
|--------------------------------|--9-9---------------------------|
 
 |       |       |       |        |       |       |       |        
|----------4---------------4-----|--4---4---5---4-----------------|
|----------7---------------7-----|--7---------------7---5---4---5-|
|------5-------5-------5-------5-|--5-----------------------------|
|--6---------------6-------------|--6-----------------------------|
|--------------------------------|--------------------------------|
|--------------------------------|--------------------------------|
 
 |       |       |       |        |       |       |       |        
|----------9-----------9-------9-|----------7---------------7-----|
|----------9-----------9-------9-|------4-------4---7---4-------4-|
|------9-----------9-------9-----|--------------------------------|
|--------------------------------|--------------------------------|
|--------------------------------|--4-4---------------------------|
|--9-----------9-----------------|--------------------------------|
 
 |       |       |       |        |       |       |       |        
|----------5---------------5-----|----------4---------------4-----|
|------------------5-------------|------------------4-------------|
|------6-------6-------6-------6-|------5-------5-------5-------5-|
|--------------------------------|--------------------------------|
|--------------------------------|--------------------------------|
|--5-5---------------------------|--4-4---------------------------|
 
 |       |       |       |        |       |       |       |        
|----------2---------------2-----|----------0---------------0-----|
|------------------2-------------|------------------0-------------|
|------2-------2-------2-------2-|------1-------1-------1-------1-|
|--------------------------------|--------------------------------|
|--------------------------------|--------------------------------|
|--2-2---------------------------|--0-0---------------------------|
 
 |       |       |       |        |       |       |       |        
|------------------0-------------|------------------4-------------|
|----------2---4-----------2---4-|--------------4-----------------|
|------0---------------0---------|----------5---------------------|
|--1-1---------------------------|------4-------------------------|
|--------------------------------|--------------------------------|
|--------------------------------|--4-4---------------------------|
 
 |       |       |       |        |       |       |       |        
|------------------4-------------|------------------4-------------|
|----------5---------------5-----|----------7---------------7-----|
|--------------------------------|--------------------------------|
|------6-------6-------6-------6-|------7-------7-------7-------7-|
|--4-----------------------------|--4-----------------------------|
|--------------------------------|--------------------------------|
 
 |       |       |       |        |       |       |       |        
|------------------4-------------|----------0-------4-------0-----|
|----------4---------------4-----|--------------------------------|
|--------------------------------|------1-------1-------1-------1-|
|------4-------4-------4-------4-|--------------------------------|
|--4-----------------------------|--4-----------------------------|
|--------------------------------|--------------------------------|
 
 |       |       |       |        |       |       |       |        
|------------------4-------------|------------------4-------------|
|----------2---------------2-----|----------4---------------4-----|
|--------------------------------|--------------------------------|
|------2-------2-------2-------2-|------4-------4-------4-------4-|
|--4-----------------------------|--4-----------------------------|
|--------------------------------|--------------------------------|
 
 |       |       |       |        |       |       |       |        
|------------------4-------------|------------------4-------------|
|----------5---------------5-----|----------5---------------5-----|
|--------------------------------|------6-------6-------6-------6-|
|------4-------4-------4-------4-|--------------------------------|
|--------------------------------|--4-----------------------------|
|--4-----------------------------|--------------------------------|
 
 |       |       |       |        |       |       |       |        
|--------------------------------|----------2---------------2-----|
|----------5-------5-------5-----|------------------5-------------|
|--------------------------------|------2-------2-------2-------2-|
|------6-------6-------6-------6-|--------------------------------|
|--4-----------------------------|--4-----------------------------|
|--------------------------------|--------------------------------|
 
 |       |       |       |        |       |       |       |        
|--------------------------------|--------------------------------|
|----------4-------5-------4-----|----------5-------5-------5-----|
|--------------------------------|--------------------------------|
|------4-------4-------4-------4-|------6-------6-------6-------6-|
|--4-----------------------------|--4-----------------------------|
|--------------------------------|--------------------------------|
 
 |       |       |       |        |       |       |       |        
|--------------------------------|--------------------------------|
|----------2-------5-------2-----|----------4-------5-------4-----|
|--------------------------------|--------------------------------|
|------2-------2-------2-------2-|------4-------4-------4-------4-|
|--4-----------------------------|--4-----------------------------|
|--------------------------------|--------------------------------|
 
 |       |       |       |        |       |       |       |        
|--------------------------------|--------------------------------|
|------------------5-------4-----|----------5-------5-------5-----|
|----------5---------------------|--------------------------------|
|------4-------4-------4-------4-|------6-------6-------6-------6-|
|--------------------------------|--4-----------------------------|
|--4-----------------------------|--------------------------------|
 
 |       |       |       |        |       |       |       |        
|--------------------------------|--------------------------------|
|----------4-------5-------4-----|----------2-------5-------2-----|
|--------------------------------|--------------------------------|
|------4-------4-------4-------4-|------2-------2-------2-------2-|
|--2-----------------------------|--0-----------------------------|
|--------------------------------|--------------------------------|
 
 |       |       |       |        |       |       |       |        
|--------------------------------|------------------0-------------|
|------------------5-------------|--------------------------------|
|----------5---------------5-----|----------2---------------2-----|
|------4-------4-------4-------4-|------2-------2-------2-------2-|
|--------------------------------|--------------------------------|
|--4-----------------------------|--2-----------------------------|
 
 |       |       |       |        |       |       |       |        
|------------------0-------------|------------------0-------------|
|--------------------------------|----------2---4-----------2---4-|
|----------1---------------1-----|------0---------------0---------|
|------0-------0-------0-------0-|--1-----------------------------|
|--------------------------------|--6-----------------------------|
|--0-----------------------------|--------------------------------|
 
 |       |       |       |        |       |       |       |        
|------------------4-------------|--------------------------------|
|--------------4-----------------|------0-------0---5---0-------0-|
|----------5---------------------|----------6---------------6-----|
|------4-------------------------|--------------------------------|
|--------------------------------|--4-----------------------------|
|--4-----------------------------|--------------------------------|
 
 |       |       |       |        |       |       |       |        
|------------------0-------------|------------------0-------------|
|----------2---------------2-----|----------2---------------2-----|
|------3-------3-------3-------3-|------2-------2-------2-------2-|
|--------------------------------|--------------------------------|
|--4-----------------------------|--0-----------------------------|
|--------------------------------|--------------------------------|
 
 |       |       |       |        |       |       |       |        
|------------------0-------------|------------------2-------------|
|----------0---------------0-----|----------2---------------2-----|
|------1-------1-------1-------1-|------2-------2-------2-------2-|
|--2-----------------------------|--4-----------------------------|
|--------------------------------|--------------------------------|
|--------------------------------|--------------------------------|
 
 |       |       |       |        |       |       |       |        
|------------------4-------------|------------------4-------------|
|----------2---------------2-----|------1---4---1-------1---4---1-|
|------3-------3-------3-------3-|--1-----------------------------|
|--1-----------------------------|--------------------------------|
|--------------------------------|--------------------------------|
|--------------------------------|--------------------------------|
 
 |       |       |       |        |       |       |       |        
|------------------4-------------|------------------4-------------|
|------1---4---1-------1---4---1-|----------4---------------4-----|
|--------------------------------|------5-------5-------5-------5-|
|--4-----------------------------|--2-----------------------------|
|--------------------------------|--------------------------------|
|--------------------------------|--------------------------------|
 
 |       |       |       |        |       |       |       |        
|--------------------------------|--------------------------------|
|--------------------------------|--------------------------------|
|--------------------------------|--------------------------------|
|--1-----------------------------|--------0-----0---2-------0---2-|
|--------------------------------|------3---------------3---------|
|--------------------------------|--------------------------------|
 
 |       |       |       |        |       |       |       |        
|----------3-----------3-------3-|--------------------------------|
|----------5-----------5-------5-|--------------------------------|
|--------------------------------|--------------------------------|
|------5-----------5-------5-----|--------0-----0---2-------------|
|--3-----------3-----------------|--3---3---------------3---0-----|
|--------------8-----------------|------------------------------3-|
 
 |       |       |       |        |       |       |       |        
|----------1-----------1-------1-|--------------------------------|
|----------1-----------1-------1-|--------------------------------|
|------2-----------2-------2-----|--------------------------------|
|--------------------------------|--------------------------------|
|--------------------------------|------------------0-----------0-|
|--1-----------1-----------------|--1---1-3-1---3-------1---3-----|
 
 |       |       |       |        |       |       |       |        
|----------4-----------4-------4-|--------------------------------|
|----------4-----------4-------4-|--------------------------------|
|------5-----------5-------5-----|------1---2---1-----------------|
|--------------------------------|------------------4---2---1---2-|
|--------------------------------|--------------------------------|
|--4-----------4-----------------|--4-----------------------------|
 
 |       |       |       |        |       |       |       |        
|----------4-----------4-------4-|--------------------------------|
|----------5-----------5-------5-|--------------------------------|
|--------------------------------|--------------------------------|
|------6-----------6-------6-----|--------1-----1---2-------1---2-|
|--4-----------4-----------------|--4---4---------------4---------|
|--------------------------------|--------------------------------|
 
 |       |       |       |        |       |       |       |        
|----------4-----------4-------4-|--------------------------------|
|----------5-----------5-------5-|--------------------------------|
|--------------------------------|--------------------------------|
|------6-----------6-------6-----|--------1-----1---2-------------|
|--4-----------4-----------------|--4---4---------------4---0-----|
|--------------------------------|------------------------------4-|
 
 |       |       |       |        |       |       |       |        
|----------2-----------2-------2-|--------------------------------|
|----------2-----------2-------2-|--------------------------------|
|------2-----------2-------2-----|--------------------------------|
|--------------------------------|--------------------------------|
|--------------------------------|------------------0-----------0-|
|--2-----------2-----------------|--2---2-4-2---4-------2---4-----|
 
 |       |       |       |        |       |       |       |        
|----------4-----------4-------4-|------4---5---4-----------------|
|----------4-----------4-------4-|------------------7---5---4---5-|
|------5-----------5-------5-----|--------------------------------|
|--------------------------------|--------------------------------|
|--------------------------------|--------------------------------|
|--4-----------4-----------------|--4-----------------------------|
 
 |       |       |       |        |       |       |       |        
|----------3-----------3-------3-|--------------------------------|
|----------5-----------5-------5-|----------4-----------4-------4-|
|--------------------------------|----------3-----------3-------3-|
|------5-----------5-------5-----|------4-----------4-------4-----|
|--3-----------3-----------------|--2-----------2-----------------|
|--------------8-----------------|--------------------------------|
 
 |       |       |       |        |       |       |       |        
|--------------------------------|--2-------5-------8-------11----|
|----------2-----------2-------2-|--1-------4-------7-------10----|
|----------1-----------1-------1-|------2-------5-------8-------11|
|------2-----------2-------2-----|--1-------4-------7-------10----|
|--1-----------1-----------------|--------------------------------|
|--------------------------------|--------------------------------|
 
 |       |       |       | Fin    
|--9-----------------------------|
|--9-----------------------------|
|--9-----------------------------|
|--------------------------------|
|--------------------------------|
|--9-----------------------------|
 
pompom020366@hotmail.com
Tap to rate this tab
# A B C D E F G H I J K L M N O P Q R S T U V W X Y Z