Song name
# A B C D E F G H I J K L M N O P Q R S T U V W X Y Z

Claude Sirois - Mystre tab

                              
                              MYSTERE    
                     
                    composer par Claude Sirois


                traduit en tablature par Steve Morin


 |   II  |       | IV    |        | III   |       | VI    |        
|--------------------------------|--------------------------------|
|--------------------------------|--------------------------------|
|--2-------2-------5-------5-----|--4-------4-------7-------7-----|
|------2-------2-------4-------4-|------3-------3-------6-------6-|
|--0---------------0-------------|--0---------------0-------------|
|--------------------------------|--------------------------------|
 
 | VII   |       | VIII  |        | V     |       |   VII |        
|--------------------------------|--------------------------------|
|--------------------------------|--------------------------------|
|--9-------9-------10------10----|--7-------7-------9-------9-----|
|------7-------7-------9-------9-|------6-------6-------7-------7-|
|--0---------------0-------------|--0---------------0-------------|
|--------------------------------|--------------------------------|
 
 | II    |       |   IV  |        | III   |       |   VI  |        
|--------------------------------|--------------------------------|
|--------------------------------|--------------------------------|
|--2-------2-------5-------5-----|--4-------4-------7-------7-----|
|------2-------2-------4-------4-|------3-------3-------6-------6-|
|--0---------------0-------------|--0---------------0-------------|
|--------------------------------|--------------------------------|
 
 | VII   |       | VIII  |        | VII   |       | VII   |        
|--------------------------------|--------------------------------|
|--------------------------------|--------------------------------|
|--9-------9-------10------10----|--7-------7-------9-------9-----|
|------7-------7-------9-------9-|------6-------6-------7-------7-|
|--0---------------0-------------|--0---------------0-------------|
|--------------------------------|--------------------------------|
 
 | IV    |       | VI    |        | III   |       |       |        
|--------------------------------|--------------------------------|
|--------------------------------|--------------------------------|
|--5-------5-------7-------7-----|--4h--0-------4h--0-------5-----|
|------4-------4-------6-------6-|----------3-----------3-------3-|
|--0---------------0-------------|--0-----------------------0-----|
|--------------------------------|--------------------------------|
 
 |   II  |       |       |        | III   |       |       |        
|--------------------------------|--------------------------------|
|--------------------------------|--------------------------------|
|--2p--0-------2p--0-------2p--0-|------4-----------4-------5-----|
|----------2-----------2---------|----------3-----------3-------3-|
|--0-----------------------------|--0-----------0-----------------|
|--------------------------------|--------------------------------|
 
 |       |       |       |        |       |       |       |        
|--------------------------------|--------------------------------|
|----------1-----------0---------|--3-----------1-----------0-----|
|--------------2-----------2-----|------2-----------2-----------2-|
|------2-----------2-----------2-|----------2-----------2---------|
|--0-----------------------------|--0-----------------------------|
|--------------------------------|--------------------------------|
 
 |       |       |       |        |       |       |       |        
|--------------------------------|--------------------------------|
|----------1-----------0---------|--3-----------1-----------0-----|
|--------------2-----------2-----|------2-----------2-------------|
|------2-----------2-----------2-|----------2-----------2-------2-|
|--0-----------------------------|--0-----------------------------|
|--------------------------------|--------------------------------|
 
 |       |       |       |        |       |       |       |        
|--------------------------------|--------------------------------|
|------------------1-------1-----|--0-------0-------3-------3-----|
|--2-------2---------------------|----------------------1-------1-|
|------2-------2-------2-------2-|------0-------0-----------------|
|--0-------0-------3-------3-----|--------------------------------|
|--------------------------------|--3-------3-------0-------0-----|
 
 |       |       |       |        |       |       |       |        
|--0-------0-------1-------1-----|------------------0-------------|
|------1-------1-------3-------3-|--3-------3---------------------|
|--2-------2-------2-------2-----|------1-------1-------2-------2-|
|------------------0-------0-----|--------------------------------|
|--0-------0---------------------|------------------0-------0-----|
|--------------------------------|--0-------0---------------------|
 
 |       |       |       |        |       |       |       |        
|--------------------------------|--------------------------------|
|------------------1-------1-----|--0-------0-------3-------3-----|
|--2-------2---------------------|----------------------1-------1-|
|------2-------2-------2-------2-|------0-------0-----------------|
|--0-------0-------3-------3-----|--------------------------------|
|--------------------------------|--3-------3-------0-------0-----|
 
 |       |       |       |        |       |       |       |        
|--0-------0-------1-------1-----|------------------0-------------|
|------1-------1-------3-------3-|--3-------3---------------------|
|--2-------2-------2-------2-----|------1-------1-------2-------2-|
|------------------0-------0-----|--------------------------------|
|--0-------0---------------------|------------------0-------0-----|
|--------------------------------|--0-------0---------------------|
 
 |       |       |       |        |       |       |       |        
|--------------------------------|--------------------------------|
|--1-------1-------3-------3-----|--0-------0---------------------|
|------2-------2-------2-------2-|------1-------1---2-------------|
|----------2-------0-------0-----|----------------------2-------2-|
|--0-----------------------------|------------------0-------0-----|
|--------------------------------|--0-------0---------------------|
 
 |       |       |       |        |       |       |       |        
|--------------------------------|--------------------------------|
|--------------------------------|------0-----------0-------1-----|
|--2p--0-------2p--0-------2p--0-|----------0-----------0-------0-|
|----------2-----------2---------|--------------0-----------------|
|--0-----------------------------|--------------------------------|
|--------------------------------|--3-----------------------------|
 
 |       |       |       |        |       |       |       |        
|--------------------------------|--------------------------------|
|--------------------------------|------0-----------0-------1-----|
|--2p--0-------2p--0-------2p--0-|----------0-----------0-------0-|
|----------2-----------2---------|--------------0-----------------|
|--0-----------------------------|--------------------------------|
|--------------------------------|--3-----------------------------|
 
 |       |       |       |        |       |       |       |        
|--------------------------------|--------------------------------|
|----------1-----------0---------|--3-----------1-----------0-----|
|--------------2-----------2-----|------2-----------2-------------|
|------2-----------2-----------2-|----------2-----------2-------2-|
|--0-----------------------------|--0-----------------------------|
|--------------------------------|--------------------------------|
 
 |       |       |       |        |       |       |       |        
|--------------------------------|--------------------------------|
|----------1-----------0---------|--3-----------1-----------------|
|--------------2-----------2-----|------2-----------2-------0---2-|
|------2-----------2-----------2-|----------2-----------2---------|
|--0-----------------------------|--0-----------------------------|
|--------------------------------|--------------------------------|
 
 |       |       |       |        |       |       |       |        
|--0-----------0-----------------|--------------------------------|
|----------3-------1-------0---1-|------0-------------------------|
|------2---------------0---------|--------------0---2-------0---2-|
|--------------------------------|------0---------------2---------|
|--0---------------3-------------|------------------0-------------|
|--------------------------------|--3-----------------------------|
 
 |       |       |       |        |       |       |       |        
|--0-----------0-----------------|--------------------------------|
|----------3-------1-------0---1-|------0-------------------------|
|------2---------------0---------|--------------0---2-------0---2-|
|--------------------------------|------0---------------2---------|
|--0---------------3-------------|------------------0-------------|
|--------------------------------|--3-----------------------------|
 
 |       |       |       |        |       |       |       |        
|--0-----------0-----------------|--------------------------------|
|----------3-------1-------0---1-|------0-------------------------|
|------2---------------0---------|--------------0---2-------0---2-|
|--------------------------------|------0---------------2---------|
|--0---------------3-------------|------------------0-------------|
|--------------------------------|--3-----------------------------|
 
 |       |       |       |        |       |       |       |        
|--0-----------0-----------------|--------------------------------|
|----------3-------1-------0---1-|------0-------------------------|
|------2---------------0---------|--------------0---2-------0---2-|
|--------------------------------|------0---------------2---------|
|--0---------------3-------------|------------------0-------------|
|--------------------------------|--3-----------------------------|
 
 |       |       |       |        |       |       |       |        
|--------------------------------|--------------------------------|
|--------------------------------|--------------------------------|
|------0---------------0---------|------0-------------------------|
|--------------0---------------0-|--------------0-----------------|
|--------------------------------|--------------------------------|
|--3---------------3-------------|--3---------------3-------4-----|
 
 |       |       |       |        |       |       |       |        
|--------------------------------|--------------------------------|
|----------1-----------0---------|--3-----------1-----------0---1-|
|--------------2-----------2-----|------2-----------2-------------|
|------2-----------2-----------2-|----------2-----------2---------|
|--0-----------------------------|--0-----------------------------|
|--------------------------------|--------------------------------|
 
 |       |       |       |        |       |       |       |        
|--------------------------------|----------------------0---------|
|------0-----------0-----------0-|------------------0-----------0-|
|----------0-----------0---------|--------------2-----------------|
|--------------0-----------0-----|----------3---------------------|
|--------------------------------|------3-------------------------|
|--3-----------------------------|--1-----------------------------|
 
 |       |       |       |        |       |       |       |        
|----------------------0---------|--------------------------------|
|------------------0-------0-----|----------1-----------0---------|
|------2-------2---------------2-|--------------2-----------2-----|
|----------3---------------------|------2-----------2-----------2-|
|--------------------------------|--0-----------------------------|
|--------------------------------|--------------------------------|
 
 |       |       |       |        |       |       |       |        
|--------------------------------|--------------------------------|
|--3-----------1-----------0-----|----------1-----------0---------|
|------2-----------2-------------|--------------2-----------2-----|
|----------2-----------2-------2-|------2-----------2-----------2-|
|--0-----------------------------|--0-----------------------------|
|--------------------------------|--------------------------------|
 
 |       |       |       |        |   II  |       | IV    |        
|--------------------------------|--------------------------------|
|--3-----------1-----------0-----|--------------------------------|
|------2-----------2-------------|--2-------2-------5-------5-----|
|----------2-----------2-------2-|------2-------2-------4-------4-|
|--0-----------------------------|--0---------------0-------------|
|--------------------------------|--------------------------------|
 
 | III   |       | VI    |        | VII   |       | VIII  |        
|--------------------------------|--------------------------------|
|--------------------------------|--------------------------------|
|--4-------4-------7-------7-----|--9-------9-------10------10----|
|------3-------3-------6-------6-|------7-------7-------9-------9-|
|--0---------------0-------------|--0---------------0-------------|
|--------------------------------|--------------------------------|
 
 | V     |       |   VII |        |   II  |       | IV    |        
|--------------------------------|--------------------------------|
|--------------------------------|--------------------------------|
|--7-------7-------9-------9-----|--2-------2-------5-------5-----|
|------6-------6-------7-------7-|------2-------2-------4-------4-|
|--0---------------0-------------|--0---------------0-------------|
|--------------------------------|--------------------------------|
 
 | III   |       | VI    |        | VII   |       | VIII  |        
|--------------------------------|--------------------------------|
|--------------------------------|--------------------------------|
|--4-------4-------7-------7-----|--9-------9-------10------10----|
|------3-------3-------6-------6-|------7-------7-------9-------9-|
|--0---------------0-------------|--0---------------0-------------|
|--------------------------------|--------------------------------|
 
 | V     |       |   VII |        | IV    |       | VI    |        
|--------------------------------|--------------------------------|
|--------------------------------|--------------------------------|
|--7-------7-------9-------9-----|--5-------5-------7-------7-----|
|------6-------6-------7-------7-|------4-------4-------6-------6-|
|--0---------------0-------------|--0---------------0-------------|
|--------------------------------|--------------------------------|
 
 | III   |       |       |        |   II  |       |       |        
|--------------------------------|--------------------------------|
|--------------------------------|--------------------------------|
|--4h--0-------4h--0-------5-----|--2p--0-------2p--0-------2p--0-|
|----------3-----------3-------3-|----------2-----------2---------|
|--0-----------------------0-----|--0-----------------------------|
|--------------------------------|--------------------------------|
 
 | III   |       |       |        |       |       |       | Fin    
|--------------------------------|------------------0-------------|
|--------------------------------|--------------0-----------------|
|------4-----------4-------5-----|----------2-------2-------------|
|----------3-----------3-------3-|------2-------------------------|
|--0-----------0-----------------|--0-----------------------------|
|--------------------------------|--------------------------------|
 
  pompom020366@hotmail.com
Tap to rate this tab
# A B C D E F G H I J K L M N O P Q R S T U V W X Y Z