Song name
# A B C D E F G H I J K L M N O P Q R S T U V W X Y Z

Claus Hempler - The Fall Of The Roman Empire tab

www.claushempler.dk
myspace.com/claushempler
-------------------------------------------------------------------------------
			     THE FALL OF THE ROMAN EMPIRE - Claus Hempler
-------------------------------------------------------------------------------
Tabbed by: Per Budtz-Jørgensen
Email: budtz38@hotmail.com

Tuning: EADGBe
Capo: 3rd fret


"The lightest wind would blow you over..."
  1   &   2   &   3   &   4   &   1   &   2   &   3   &   4   &     
e|-------------------------------|--------------------------------|
B|----------------3--------------|----------------0---------------|
G|5---------5---------------5----|0---------0---------------0-----|
D|------0---------------0--------|------0---------------0---------| x 3
A|5---5-------5-------5-------5--|----2-------2-------2-------2---| 
E|-------------------------------|3-------------------------------|

  1   &   2   &   3   &   4   &   1   &   2   &   3   &   4   &    
e|-------------------------------|3---------------0---------------|
B|0h1-------------1--------------|--------------------------------|
G|----------0---------------0----|----------0---------------0-----|
D|------2---------------2--------|------2---------------2---------|
A|0---0-------0-------0-------0--|----0-------0-------0-------0---|
E|-------------------------------|--------------------------------|


"I won't mind..."
  1   &   2   &   3   &   4   &   1   &   2   &   3   &   4   &    
e|2---------------2--------------|--------------------------------|
B|----------3---------------3----|1---------------3---------------|
G|------2---------------2--------|----------0---------------0-----|
D|0---0-------0-------0-------0--|------2-----2---------2---------|
A|-------------------------------|3---3---------------3-------3---|
E|-------------------------------|--------------------------------|

  1   &   2   &   3   &   4   &   1   &   2   &   3   &   4   &    
e|2---------------3--------------|--------------------------------|
B|----------3---------------3----|1---------------3---------------|
G|------2---------------2--------|----------0---------------0-----|
D|0---0-------0-------0-------0--|------2-----2---------2---------|
A|-------------------------------|3---3---------------3-------3---|
E|-------------------------------|--------------------------------|

  1   &   2   &   3   &   4   &   1   &   2   &   3   &   4   &    
e|-------------------------------|--------------------------------|
B|3---------------0--------------|2---------------2---------------|
G|----------0---------------0----|----------2---------------2-----|
D|------2---------------2--------|------2---------------2---------|
A|----2-------2-------2-------2--|0---0-------0-------0-------0---|
E|0------------------------------|--------------------------------|

  1   &   2   &   3   &   4   &   1   &   2   &   3   &   4   &    
e|3---------------3--------------|2-------------------------------|
B|----------2---------------2----|2-------------------------------|
G|------2---------------2--------|2-------------------------------|
D|----2-------2-------2-------2--|2-------------------------------|
A|-------------------------------|0-------------------------------|
E|-------------------------------|--------------------------------|


"...is over by now..."
  1   &   2   &   3   &   4   &   1   &   2   &   3   &   4   &    
e|2---------------2--------------|0---------------2---------------|
B|----------3---------------3----|----------3---------------3-----|
G|------0---------------0--------|------0---------------0---------|
D|----0-------0-------0-------0--|----0-------0-------0-------0---|
A|-------------------------------|--------------------------------|
E|3------------------------------|--------------------------------|

  1   &   2   &   3   &   4   &   1   &   2   &   3   &   4   &    
e|2---------------3p2------------|--------------------------------|
B|----------3---------------3----|3---------------0---------------|
G|------2---------------2--------|----------2---------------2-----|
D|0---0-------0-------0-------0--|------0---------------0---------|
A|-------------------------------|2---2-------2-------2-------0---|
E|-------------------------------|--------------------------------|

  1   &   2   &   3   &   4   &   1   &   2   &   3   &   4   &    
e|2---------------2--------------|0---------------2---------------|
B|----------3---------------3----|----------3---------------3-----|
G|------0---------------0--------|------0---------------0---------|
D|----0-------0-------0-------0--|----0-------0-------0-------0---|
A|-------------------------------|--------------------------------|
E|3------------------------------|--------------------------------|

  1   &   2   &   3   &   4   &   1   &   2   &   3   &   4   &    
e|2---------------3p2------------|0-------------------------------|
B|----------3---------------3----|1-------------------------------|
G|------2---------------2--------|0-------------------------------|
D|0---0-------0-------0-------0--|2-------------------------------|
A|-------------------------------|0-------------------------------|
E|-------------------------------|--------------------------------|


Instrumental
  1   &   2   &   3   &   4   &   1   &   2   &   3   &   4   &    
e|-------------------------------|--------------------------------|
B|10--------------8--------------|0---------------0---------------|
G|----------0---------------0----|----------0---------------0-----|
D|------10--------------10-------|------10--------------10--------|
A(8)--8---8---8-------8---8---8--(8)--8---8---8-------8---8---8---|
E|-------------------------------|--------------------------------|

  1   &   2   &   3   &   4   &   1   &   2   &   3   &   4   &    
e|-------------------------------|--------------------------------|
B|10--------------8--------------|0---------------0---------------|
G|----------0---------------0----|----------0---------------0-----|
D|------10--------------10-------|------10--------------10--------|
A(0)--0---0---0-------0---0---0--(0)--0---0---0-------0---0---0---|
E|-------------------------------|--------------------------------|

  1   &   2   &   3   &   4   &   1   &   2   &   3   &   4   &    
e|-------------------------------|--------------------------------|
B|10--------------8--------------|0---------------0---------------|
G|----------0---------------0----|----------0---------------0-----|
D|------10--------------10-------|------10--------------10--------|
A(8)--8---8---8-------8---8---8--(8)--8---8---8-------8---8---8---|
E|-------------------------------|--------------------------------|

  1   &   2   &   3   &   4   &   1   &   2   &   3   &   4   &    
e|-------------------------------|0-------------------------------|
B|8---------------7--------------|1-------------------------------|
G|----------0---------------0----|0-------------------------------|
D|------7---------------7--------|2-------------------------------|
A|5---5---5---5---5---5---5---5--|0-------------------------------|
E|-------------------------------|--------------------------------|


| /  slide up
| \  slide down
| h  hammer-on
| p  pull-off
| ~  vibrato
| +  harmonic
| x  Mute note
===============================================================================
Tap to rate this tab
 
# A B C D E F G H I J K L M N O P Q R S T U V W X Y Z