Guitaretab - guitar tabs
Song name
# A B C D E F G H I J K L M N O P Q R S T U V W X Y Z

Clawfinger - Truth tab

Intro/After Chorus [Play with metal slide]
                                                                            
E|--------------------------------|---------------------------|--------------------------------|
B|--------------------------------|---------------------------|--------------------------------|
G|--------------------------------|---------------------------|--------------------------------|
D|-----12--12-11--11-10--9-8--8-7-|-----3--3-4--4-5--5-6--6-7-|-----12--12-11--11-10--9-8--8-7-|
A|-----12--12-11--11-10--9-8--8-7-|-----3--3-4--4-5--5-6--6-7-|-----12--12-11--11-10--9-8--8-7-|
D|-0-0-12--12-11--11-10--9-8--8-7-|-0-0-3--3-4--4-5--5-6--6-7-|-0-0-12--12-11--11-10--9-8--8-7-|

Verse [Play with a metal slide]

E|--------------|
B|--------------|
G|--------------|
D|-1////////12--|
A|-1////////12--|
D|-1////////12--|

Chorus

E|--------------------------------------|
B|--------------------------------------|
G|-4--------7--4----4-------------------|
D|-4--3--0--7--4-3--4--3----------------|
A|-2--3--0--5--2-3--2--3--3--3--3-3---3-|
D|----3--0-------3-----3--3--3--3-3---3-|

[ Tab from: http://www.guitaretab.com/c/clawfinger/152337.html ]
Related for Truth tab