Guitaretab - guitar tabs
Song name
# A B C D E F G H I J K L M N O P Q R S T U V W X Y Z

Clawfinger - Do What I Say tab

#----------------------------------PLEASE NOTE---------------------------------#
#This file is the author's own work and represents their interpretation of the-#
#song. You may only use this file for private study, scholarship, or research.-#
#------------------------------------------------------------------------------#

Clawfinger - Do What I Say
Tabbed By: guitarfreak

Its a very cool song :-) Enjoy!

Drop D Tuning


/= slide
x= ghost note

Main Riff
[ Tab from: http://www.guitaretab.com/c/clawfinger/25884.html ]
e-----------------------------------------|
B-----------------------------------------|
G-----------------------------------------|
D-7/8----7/8-7/8------7/8---7/8--x-x------|
A-7/8----7/8-7/8------7/8---7/8--x-x------|
D-7/8----7/8-7/8------7/8---7/8--x-x------|


Verse

e-----------------------------------------|
B-----------------------------------------|
G-----------------------------------------|
D-----------------------------------------|
A-7----7--7---7-7---7---------------------|
D-7----7--7---7-7---7---------------------|
p.m. (foolow the Lyrics of Zak!)


================================================================================
Related for Do What I Say tab