Song name
# A B C D E F G H I J K L M N O P Q R S T U V W X Y Z

Clawfinger - Pay The Bill tab

#----------------------------------PLEASE NOTE---------------------------------#
#This file is the author's own work and represents their interpretation of the-#
#song. You may only use this file for private study, scholarship, or research.-#
#------------------------------------------------------------------------------#

Clawfinger - Pay The Bill
Tabbed By: guitarfreak

Drop D Tuning


Main Riff
                          3X
e----------------------------|----------------------------|
B----------------------------|----------------------------|
G----------------------------|----------------------------|
D----------------------------|----------------------------|
A-2-2-0-2--0-2-2-0-2-2-0-3-0-|-2-2-0-2--0-2-2-0-2-2-0-8-0-|
D-2-2-0-2--0-2-2-0-2-2-0-3-0-|-2-2-0-2--0-2-2-0-2-2-0-8-0-|


Verse

e----------------------------|----------------------------|
B----------------------------|----------------------------|
G----------------------------|----------------------------|
D----------------------------|----------------------------|
A----------------------------|------------------------8-0-|
D-2-2-0-2--------------------|-2-2-0-2--0-2-2-0-2-2-0-8-0-|
p.m.


Chorus

e----------------------------|----------------------------|
B----------------------------|----------------------------|
G----------------------------|----------------------------|
D----------------------------|----------------------------|
A-8-8-0-8-8-0-8-8-0-12-7-----|-8-8-0-8-8-0-8-8-0-12-13----|
D-8-8-0-8-8-0-8-8-0-12-7-----|-8-8-0-8-8-0-8-8-0-12-13----|

================================================================================
Tap to rate this tab
 
# A B C D E F G H I J K L M N O P Q R S T U V W X Y Z