Song name
# A B C D E F G H I J K L M N O P Q R S T U V W X Y Z

Clawfinger - Nigger tab

Artist: Clawfinger
Song: Nigger
Tabber: Satan Man
Tabbers Email: death_metal6@hotmail.co.uk
Tuning: D A D G B E

Intro
                         4x                        4x
E--------------------------|-------------------------|
B--------------------------|-------------------------|
G--------------------------|----------------------10-|
D--------9/10-----------10-|--------9/10----------10-|
A-----------------------8--|-0--0-0--------0-0--0-8--|
D-0--0-0-------0-0--0-0----|-0--0-0--------0-0--0----|

Verse 1+2

E--------------------------|
B--------------------------|
G--------------------------|
D--------9/10-----------10-|
A-----------------------8--|
D-0--0-0-------0-0--0-0----|

Chorus
                  3x
E-------------------|-------------|
B-------------------|-------------|
G--------8---10---7-|-8---10---11-|
D--------8-x-10-x-7-|-8-x-10-x-11-|
A-6-6-6--6-x-8--x-5-|-6-x-8--x-9--|
D-------------------|-------------|

After Chorus/2nd Part of Verse 3

E------------------------|
B------------------------|
G---------------------10-|
D--------9/10---------10-|
A-0--0-0-------0-0--0-8--|
D-0--0-0-------0-0--0----|

Verse 3

E--------------------------------------------------------------------------------------------------------------------------------------------------------------------------------|
B--------------------------------------------------------------------------------------------------------------------------------------------------------------------------------|
G--------6/7---------4/5---------6/7---------9/10---------6/7---------4/5---------6/7---------11/12---------6/7---------4/5---------6/7---------12/13---------9/10---------7---9-|
D-0--0-0------0--0-0------0--0-0------0--0-0-------0--0-0------0--0-0------0--0-0------0--0-0--------0--0-0------0--0-0------0--0-0------0--0-0--------0--0-0-------0--0-0-------|
A--------------------------------------------------------------------------------------------------------------------------------------------------------------------------------|
D--------------------------------------------------------------------------------------------------------------------------------------------------------------------------------|

Outro
                                                                             2x
E----------------------------------------|-------------------------------------|
B----------------------------------------|-------------------------------------|
G--------3---------3---------3---------3-|--------3--------3--------3--------3-|
D--------3---------3---------3---------3-|--------3--------3--------3--------3-|
A-1--1-1----1-1--1----1--1-1----1-1--1---|-5--5-5---5-5--5---5--5-5---5-5--5---|
D-1--1-1----1-1--1----1--1-1----1-1--1---|-5--5-5---5-5--5---5--5-5---5-5--5---|
Tap to rate this tab
 
# A B C D E F G H I J K L M N O P Q R S T U V W X Y Z