Song name
# A B C D E F G H I J K L M N O P Q R S T U V W X Y Z

Clawfinger - Rosegrove tab

Artist: Clawfinger
Song: Nigger
Tabber: Satan Man
Tabbers Email: death_metal6@hotmail.co.uk
Tuning: Drop D (D A D G B E)

Intro/Chorus (palm muted)

E|-----------------------------------------------------------------------------------------------------------|
B|-----------------------------------------------------------------------------------------------------------|
G|-----------------------------------------------------------------------------------------------------------|
D|-----------------------------------------------------------------------------------------------------------|
A|-3-3-3--3-3--3-3-3--3-3-3---2-2-2--2-2--2-2-2--2-2-2---2-2-2--2-2--2-2-2--2-2-2---2-2-2--2-2--2-2-2--2-2-2-|
D|-3-3-3--3-3--3-3-3--3-3-3---2-2-2--2-2--2-2-2--2-2-2---2-2-2--2-2--2-2-2--2-2-2---2-2-2--2-2--2-2-2--2-2-2-|


Verse

E|-----------|
B|-----------|
G|-----------|
D|-----------|
A|-2--2--2-3-|
D|-2--2--2-3-|

Bridge

E|--------------------------------------------------------------|
B|-----------------9-10-10-10-9---------------------------------|
G|-9-10-10-10-9--------------------9-10-10-10-9-----------------|
D|-------------------------------------------------9-10-10-10-9-|
A|--------------------------------------------------------------|
D|--------------------------------------------------------------|

Fill
               
E|----------------------|
B|----------------------|
G|----------------------|
D|-3--------0----2----3-|
A|-3--------0----2----3-|
D|-3--------0----2----3-|
Tap to rate this tab
# A B C D E F G H I J K L M N O P Q R S T U V W X Y Z