Song name
# A B C D E F G H I J K L M N O P Q R S T U V W X Y Z

Clay Aiken - I Will Carry You tab

Tabbed by: jamuel24
Email: jam_tecus12@hotmail.com

Tuning: Drop D
Note: This can be played with one guitar, but I tabbed it with two at parts to make it easier. 
There may be parts where it would be easier to play (x133) instead of (888) and 
(x355) for (rrr), Im sure you can figure that out for yourself.

Guitar 1 Intro: 2x, second time dont do the harmonics or palm muting
e|---------------------------------------------------------------------------|
B|---------------------------------------------------------------------------|
G|---------------------------------------------------------------------------|
D|---++----333--3333-3--3333-3---8888-8---8888-8--10-10----------------------|
A|---++----333--3333-3--3333-3---8888-8---8888-8--10-10----------------------|
D|---++----333--3333-3--3333-3---8888-8---8888-8--10-10----------------------|       
           Pm.      
Guitar 2 Intro: 2x (r=10) (play between guitar 1s part)
e|---------------------------------------------------------------------------|
B|---------------------------------------------------------------------------|
G|-----rrrrrr---rrrrrr---rrrrrr----------------------------------------------|
D|-----xxxxxx---xxxxxx---xxxxxx----------------------------------------------|
A|-----888888---888888---888888----------------------------------------------|
D|---------------------------------------------------------------------------|

Verse 1: Just 1 guitar needed 
e|---------------------------------------------------------------------------|
B|---------------------------------------------------------------------------|
G|-------------------7-----------------------rr-++-rr-++----------7----------|
D|-333333-3--000000--7--888888--r--333333-3--xx-++-xx-++--000000--7-888888-r-|
A|-333333-3--000000--5--888888--r--333333-3--88-++-88-++--000000--5-888888-r-|
E|-333333-3--000000-----888888--r--333333-3---------------000000----888888-r-|
   ......    ......     ......     ......                 ......    ......

Pre-chorus:
e|---------------------------------------------------------------------------|
B|---------------------------------------------------------------------------|
G|--r-+-r-+-r--9-9/r---------------------------------------------------------|
D|--x-+-x-+-x--x-x-x(6X, then)--r-rrrr-r-rrrr-888-rrr-----------------------|
A|--8-+-8-+-8--7-7/8-------------r-rrrr-r-rrrr-888-rrr-----------------------|
E|-------------------------------r-rrrr-r-rrrr-888-rrr-----------------------|
                                   ....   .... 

Chorus: First part is just the intro (both guitar parts), then this:
e|---------------------------------------------------------------------------|
B|---------------------------------------------------------------------------|
G|---------------------------------------------------------------------------|
D|--0-0-0-0-0-0---8-8-8-8-8-8---0-0-0-0-0-0---5-5-5-5-5-5---888888-rrrrrr----|
A|--0-0-0-0-0-0---8-8-8-8-8-8---0-0-0-0-0-0---5-5-5-5-5-5---888888-rrrrrr----|
E|--0-0-0-0-0-0---8-8-8-8-8-8---0-0-0-0-0-0---5-5-5-5-5-5---888888-rrrrrr----|

Then play that riff from the intro twice

Verse 2: I kind of guessed on the rhythm for this high part; the other
guitar doesnt play, but you can play the part from verse 1 if you want (2X)
e|------------------------------------------55-------------------------------|
B|--6666-88-66-88-66-88----6666-88-66-88-66----66----------------------------|
G|---------------------------------------------------------------------------|
D|---------------------------------------------------------------------------|
A|---------------------------------------------------------------------------|
E|---------------------------------------------------------------------------|

Then prechorus again, a little different (a=11)
e|---------------------------------------------------------------------------|
B|--------------------------------------------aa-++-aa-----------------------|
G|--r-+-r-+-r--9-9/r--------------7~----------xx-++-aa-----------------------|
D|--x-+-x-+-x--x-x-x(6X, then)---7~--8~------88-++-88-----------------------|
A|--8-+-8-+-8--7-7/8--------------5~--8~-------------------------------------|
E|------------------------------------8~-------------------------------------|
Back to the Chorus

Pre-Bridge:                                 
e|---------------------------------------------------------------------------|
B|---------------------------------------------------------------------------|
G|----777----777-------777---777---------------------------------------------|
D|--0-777-0--777-8~--0-777-0-777-8~------------------------------------------|
A|--0-555-0--555-8~--0-555-0-555-8~------------------------------------------|
E|--0-----0------8~--0-----0-----8~------------------------------------------|

Bridge: 2X, dont hit the 355 2nd time, but go to the next part
(other guitar plays verse 2) (palm mute until 355)
e|---------------------------------------------------------------------------|
B|---------------------------------------------------------------------------|
G|--------------------------------------------------------5------------------|
D|--88-8-8-88-8-8-88-8-8-88-8-8-33-3-3-33-3-3-33-3-3-33-3-5------------------|
A|--88-8-8-88-8-8-88-8-8-88-8-8-33-3-3-33-3-3-33-3-3-33-3-3------------------|
E|--88-8-8-88-8-8-88-8-8-88-8-8-33-3-3-33-3-3-33-3-3-33-3--------------------|


Bridge part 2: (1 Guitar)
e|-------(12X)----------(12X)------------------------------------------------|
B|---------------------------------------------------------------------------|
G|--555-777777777777----------------777777777777-----------------------------|
D|--555-777777777777--888888888888--777777777777--rrrrrr-888888--------------|
A|--333-555555555555--888888888888--555555555555--rrrrrr-888888--------------|
E|------000000000000--888888888888--000000000000--rrrrrr-888888--------------|

Part 3:
e|----------------------------------------------15~--------------------------|
B|---------------------------------------------------------------------------|
G|-------------------------rrrrrr--------------------------------------------|
D|--333333-3--------3333---xxxxxx-3--(wait)--3-------------------------------|
A|--333333-3--(3X)--3333---888888-3----------3-------------------------------|
E|--333333-3--------3333----------3----------3-------------------------------|
    ......          ....

Chorus again: (same thing, a little different rhythm)
End riff:
e|---------------------------------------------------------------------------|
B|---11--10-8-9/10-10--------------------------------------------------------|
G|---------------------------------------------------------------------------|
D|--------------------3~-----------------------------------------------------|
A|--------------------3~-----------------------------------------------------|
E|--------------------3~-----------------------------------------------------|

| /  slide up
| \  slide down
| h  hammer-on
| p  pull-off
| ~  vibrato
| +  harmonic
| x/.  Mute note

Tap to rate this tab
# A B C D E F G H I J K L M N O P Q R S T U V W X Y Z