Song name
# A B C D E F G H I J K L M N O P Q R S T U V W X Y Z

Clean Bandit - Rather Be tab

-------------------------------------------------------------------------------
                                   RATHER BE - CLEAN BANDIT
-------------------------------------------------------------------------------
Tabbed by: richard_edwards
E-mail: richard1476@hotmail.co.uk

Tuning: EADGBE

Just the main hook. It's catchy.

It's basically sweeping, pretty good exercise actually!

e|-----------------------------------------------------------------------------|
B|-------------12--14--11------------------------------------------------------|
G|---------13-------------------------------13---------------------------------|
D|-----13-------------------------------13------16--13--16---------------------|
A|-14-------------------------------14-----------------------------------------|
E|------------------------------16---------------------------------------------|

e|--------------------------14-------------------------------------------------|
B|-------------12--14--11------------------------------------------------------|
G|---------13-------------------------------13---------------------------------|
D|-----13-------------------------------13------16--13--16---------------------|
A|-14-------------------------------14-----------------------------------------|
E|------------------------------16---------------------------------------------|

And the last run:

e|---------------------------------------------7-9-11-14------------------------|
B|-----------------------------------------7h9----------------------------------|
G|--13-----------13---------------------9---------------------------------------|
D|-----13-----------13----------------9-----------------------------------------|
A|--------14-----------14-------7h11--------------------------------------------|
E|-----------16-----------16----------------------------------------------------|

Enjoy!
Tap to rate this tab
 
# A B C D E F G H I J K L M N O P Q R S T U V W X Y Z