Guitaretab - guitar tabs
Song name
# A B C D E F G H I J K L M N O P Q R S T U V W X Y Z

Clearlake - You Cant Have Me tab

-------------------------------------------------------------------------------
                             CLEARLAKE - You Can't Have Me
-------------------------------------------------------------------------------

Tabbed by: Jim Collett

With delay effect:

e|----------------------------|----------------------------|
B|-----------10---------9-----|-----------10---------9-----|
G|---8-------11----6----9-----|---8-------11----6----9-----|
D|---9-------------7----------|---9-------------7----------|
A|----------------------------|----------------------------|
E|----------------------------|----------------------------|

e|----------------------------|----------------------------|
B|------------9---------8-----|-----------10---------9-----|
G|---4--------9----4----6-----|---8-------11----6----9-----|
D|---6-------------5----------|---9-------------7----------|
A|----------------------------|----------------------------|
E|----------------------------|----------------------------|

[B] You canít have me 
You canít keep me for yourself [E]
Not [Em] you, and no one else [B]
[ Tab from: http://www.guitaretab.com/c/clearlake/76965.html ]
You canít have me 
So donít get any bright ideas
Lets just get one thing clear


e|------------7---------------|----------------------------|
B|------------9---------8-----|-----------10---------9-----|
G|---4-------------4----6-----|---8-------11----6----9-----|
D|---6-------------5----------|---9-------------7----------|
A|----------------------------|----------------------------|
E|----------------------------|----------------------------|

[G#m] You [G] canít have [B] me 
[G#m] You [G] canít have [B] me 

You just donít get me
You just donít seem to understand
It wonít work out how you planned

You canít have me 
You know full well youíd just get bored
Iíve see it all before 

You canít have me 
You canít have me 

[G#m] Passions [G] decay I [G#m] know
You neednít [E] tell me
[G#m] Iím sorry to [G] say thatís so [B] [A]
[G#m] Iíll push you [G] away before [G#m] you get 
To [E] do the same to me
[B] So you [A] cant have me [B] [A]

You canít have me 
You canít keep me for yourself
Not you, and no one else

You canít have me 
You know full well youíd just get bored
Iíve see it all before 

You canít have me 
You canít have me 
You canít have me 
You canít have me 
Related for You Cant Have Me tab