Song name
# A B C D E F G H I J K L M N O P Q R S T U V W X Y Z

Clearview Kills - Sleep With The Light On tab

Clearview Kills "Sleep With The Light On"

Intro
|----------------|12109-----------|----------------|
|----------------|-----12109------|----------------|
|-7----7-5------9|-----------1110-|-7----7-555555-9|
|-7----7-5------9|----------------|-7----7-555555-9|
|-5xxx-5-3xxxxx-7|----------------|-5xxx-5-333333-7|
|----------------|----------------|----------------|

Chorus/Pre-Verse
|----------------|----------------|----------------|
|77-9-10-777-9-10|1414-12-10-9----|1414-12-10-9----|
|----------------|----------------|----------------|   
|----------------|----------------|----------------|
|----------------|----------------|----------------|
|----------------|----------------|----------------|

|77-9-10-777-9-10|1414-12-10-9----|14-12-10-9---15b|
|----------------|----------------|----------------|
|----------------|----------------|----------------|
|----------------|----------------|----------------|
|----------------|----------------|----------------|
|----------------|----------------|----------------|

Verse                               Last Time
|-5-55--3-33-2--------5-6-4-------|------3---------|
|-5-55--3-32-1-----4--------4-----|------3---------|
|-5-55--3-33-2---4----------------|------3---------|
|---------------------------------|----------------|
|---------------------------------|----------------|
|---------------------------------|----------------|

Intro To Bridge
|-55-44-7-5-88888|-55-44-7-5-88888|-55-44-7-5-8r---|
|----------------|----------------|----------------|
|----------------|----------------|----------------|
|----------------|----------------|----------------|
|----------------|----------------|----------------|
|----------------|----------------|----------------|

Bridge
|----------------|----------------|
|----------------|----------------|
|----------------|----------------|
|-------------6h-|-------------8h-|
|-7777777777-----|-7777777777-----|
|-5555555555-----|-5555555555-----|

Outro
|---------------|
|---------------|
|---------------|
|---------------|
|-------555555-0|
|--0----333333-0


Order of Riffs:
Intro 
Pre-Verse
Verse
Chorus
Verse
Chorus
Intro To Bridge
Bridge 
Outro

Enjoy!

www.purevolume.com/clearviewkills
Tap to rate this tab
# A B C D E F G H I J K L M N O P Q R S T U V W X Y Z