Song name
# A B C D E F G H I J K L M N O P Q R S T U V W X Y Z

Clearview Kills - No Sympathy For A Fallen Angel tab

Clearview Kills - "No Sympathy For A Fallen Angel"

tldrumz22@hotmail.com

Intro
|--------------------------------|
|--------------------------------|
|-9----9-9----9----9-9-9-99-9----|
|-9----9-9----9----9-9-9-99-9----|
|-7----7-7----7----7-7-7-77-7----|
|--------------------------------|

Pre-Verse (palm Muted)
|--------------------------------|
|-8-8-7-7-9-9-7-9-9-7-8-8-7-7-9--|
|--------------------------------|
|--------------------------------|
|--------------------------------|
|--------------------------------|
  x x x x x x x x x x x x x x x

|--------------------------------|
|-10-10-9-9-11-11-10-12-12-12-12-|
|--------------------------------|
|--------------------------------|
|--------------------------------|
|--------------------------------|
  x x x x x x x x x x x x x x x 

|--------------------------------|
|12-12-12-12-12-12-12-12-12-12-12|
|10-10-10-10-10-10-10-10-10-10-10|
|--------------------------------|
|--------------------------------|
|--------------------------------|

|--------------------------------|
|-4-4-3-3-5-5-3-5-5-3-5-5-5-4----|
|--------------------------------|
|--------------------------------|
|--------------------------------|
|--------------------------------|
  x x x x x x x x x x x x x x 

Verse
|--------------------------------|--------------------------------|
|--------------------------------|--------------------------------|
|7-7-7-7-7-7-7-7-7-7-7-7-7-7-7-7-|9-9-9-9-9-9-9-9-9-9-9-9-9-9-9-9-|
|7-7-7-7-7-7-7-7-7-7-7-7-7-7-7-7-|9-9-9-9-9-9-9-9-9-9-9-9-9-9-9-9-|
|5-5-5-5-5-5-5-5-5-5-5-5-5-5-5-5-|7-7-7-7-7-7-7-7-7-7-7-7-7-7-7-7-|
|--------------------------------|--------------------------------|

www.purevolume.com/clearviewkills
www.myspace.com/clearview724
Tap to rate this tab
# A B C D E F G H I J K L M N O P Q R S T U V W X Y Z