Guitaretab - guitar tabs
Song name
# A B C D E F G H I J K L M N O P Q R S T U V W X Y Z

Clem Snide - Lets Explode chords

Highlighted       Show chord diagrams
Artist: Clem Snide
Song: Lets Explode
Album: The Ghost of Fashion
Tabbed by: Don Tago
Email: recebedou@yahoo.com



Standard Tuning

Chords used:
    EADGBe
C/G:332010
F:  133211
G:  320033

Riff 1: (violin arranged for guitar)
    F                 C/G
e|-0-1---0--------------|
B|-----------3---1-0-1--| 
G|----------------------|
D|----------------------|

Riff 2: (violin arranged for guitar)
    F                                 C/G
e|-0-1---0-----------------------------|
B|-----------3---1-0-1---0-------------| 
G|---------------------------2-0-------|
D|-------------------------------3-2---|
A|-----------------------------------3-|


Riff 3:
    F
e|-1---8---0----1---8---0----1---1-1-1-|
B|-1-----6---6--1-----6---6--1---1-1-1-| 
G|-2------------2------------2---2-2-2-|
D|-3------------3------------3---3-3-3-|
A|-3------------3------------3---3-3-3-|
A|-1------------1------------1---1-1-1-|



[No Intro]

Verse 1 chords:
C/G      F            C/G
Love is only for the lovely 
            F                 C/G
And such a glamorous thing to waste 
G                      F         G   F [w/riff 1]
Wait, I have to fix my makeup, wait 

[ Tab from: http://www.guitaretab.com/c/clem-snide/185196.html ]
Verse 2: 
       C/G      F            C/G
'cause no one likes to see a pretty 
          F               C/G
Face, all sad and twisted up 
           G                             F
'cause the beautiful were never meant to suffer 
           G           F [w/riff 2]
And I'm so beautiful 


Verse 3: (use verse 1 chords, with Riff 3 at end)
A peacock died to color my lips 
So I died my hair in all their sweat 
But now I'm haunted by these visions of me 


Verse 4 chords: (finger-picking chords)
C/G     F          C/G
I don't wanna live forever 
                F              C/G
When the sky is full of little holes 
  G                       F                C/G
Exploding as they take my picture, let's explode

 
Outro Verse:
    F                      C/G       G
And I don't wanna know me better ...
    F                      C/G       G
And I don't wanna know me better ...
F                     C/G        G
I don't wanna know me better ...
F                     C/G        G   [F C/G G] x4
I don't wanna know me better ... 

:end on C/G
Related for Lets Explode chords