Song name
# A B C D E F G H I J K L M N O P Q R S T U V W X Y Z

Clem Snide - Fill Me With Your Light chords

Highlighted       Show chord diagrams
---------------------------------------------------------------------------
                 Clem Snide - Fill Me With Your Light
---------------------------------------------------------------------------


E---------------------------------------------------------------|
B---------------------------------------------------------------|
G--9----6----9--------------------------------------------------|
D--6----7----7--------------------------------------------------|
A--7----4----9--------------------------------------------------|
E--0----0----0--------------------------------------------------|
   E    A   A/F#


This is based on an acoustic version that Eef plays live. I'm pretty sure the chords
are all correct, although the names might be off. 

Riff:



E------------------------------------------------------------------------|
B------------------------------------------------------------------------|
G--------9---8-----------------------------6---4-------------------------|
D----------------9---6-------6---------------------7---6-------6---------|
A----7-------------------7-------------4-------------------7-------------|
E--0---0---0---0---0---0---0---0-----0---0---0---0---0---0---0---0-------|




E
A true seduction's what it is
A
The parts are neither hers nor his
E                                     A
I would prefer you don't remove your gloves

E
The instruments shaped like a pear
A
The inside lined with rabbit hair
E                                   A
If you squint your eyes it seems to fit

E                  A/F#
Fill me with your light
                    Riff
I will not make a sound
E                  A/F#
Always throw the fight
                    Riff
And take it lying down

E
If you wear the mermaid's suit
A
There'll be no sliding down your chute
E                                     A
My sailors left to flounder in your wake

E
See the bubble, it goes pop
A
A false start, an unlikely stop
E                                     A
I'm not convinced of anything I say

E                  A/F#
Fill me with your light
                    Riff
I will not make a sound
E                  A/F#
Always throw the fight
                    Riff
And take it lying down

E
There's a different kind of dark
A
The kind that stops the dogs to bark
E                                     A
It never has to wait for setting suns

E
Inside the egg finds pantyhose
A
And holds em right up to your nose
E                                     A
The energy must somehow be absorbed

E                  A/F#
Fill me with your light
                    Riff
I will not make a sound
E                  A/F#
Always throw the fight
                    Riff
And take it lying down 
Tap to rate this tab
# A B C D E F G H I J K L M N O P Q R S T U V W X Y Z