Song name
# A B C D E F G H I J K L M N O P Q R S T U V W X Y Z

Clem Snide - Find Love tab

Find Love
by: Clem snide

-------9------ |
---------10--- |
------------9-o|
--------------o|
-0-2-4-------- |
-------------- |

Chorus is D major chord
-2-|
-3-|
-2-|
-0-|
---|
---|

Last end part is 
---------9--|
---------10-|
---------9--|
------------|
-0---2-4----|
---4--------|

Really simple but a great song none the less

Tap to rate this tab
# A B C D E F G H I J K L M N O P Q R S T U V W X Y Z