Song name
# A B C D E F G H I J K L M N O P Q R S T U V W X Y Z

Cliff Richard - Hang On To A Dream chords

Highlighted       Show chord diagrams
-------------------------------------------------------------------------------
			     Hang on to a dream - Cliff Richard
-------------------------------------------------------------------------------
Tabbed by: deHufter
Email: kurtkill@hotmail.com

Tuning: standard

Chords used:

   Gm   F   Eb  D  Cm   G
e|--3---1---6---5---3---3------------------------------------------------------------|
B|--3---1---8---7---4---3------------------------------------------------------------|
G|--3---2---8---7---5---4------------------------------------------------------------|
D|--5---3---8---7---5---5------------------------------------------------------------|
A|--5---3---6---5---3---3------------------------------------------------------------|
E|--3---1---------------3------------------------------------------------------------|

Intro:
Gm F Eb D Cm D Cm D

Gm     F
.......What can I say

Eb     D
.......she's walking away

Cm     F
.......From what we've seen

Gm     F
.......What can I do

Eb     D
.......still loving you

Cm     D
.......It's all a dream

Eb         F            Gm
How can we hang on to a dream

Eb         F            G
How can it ever be the way it seems


Repeat the above chords over the lyrics:

What can I do, she's saying we're through
With how it was
What will I try, I still don't see why
She says what she does

How can we hang on to a dream
How can it ever be the way it seems

What can I say, she's walking away
From what we've seen
What can I do, still loving you
It's all a dream

How can we hang on to a dream
How can it ever be the way it seems
How can we hang on to a dream

What can I say, she's walking away
From what we've seen
What can I do, still loving you
It's all a dream

How can we hang on to a dream
How can it will it be the way it seems
How can we hang on to a dream
Tap to rate this tab
# A B C D E F G H I J K L M N O P Q R S T U V W X Y Z