Song name
# A B C D E F G H I J K L M N O P Q R S T U V W X Y Z

Cliff Richard - Saviours Day chords

Highlighted       Show chord diagrams
Saviourís Day - Cliff Richard

Capo on 1st

All chords relative to capo!
All Tablature is not relative to capo!!

A     x02220
D     xx0232
E     022100
D7    xx0222
D6    xx0202
Dmaj7 xx0230
Bm    x24432

INTRO
e|-------------------------------------------|
B|-----6--------------------6----------------|
G|---7--------7--5--------7---------7--5-----|
D|8---------8----------8----------8------3---|
A|-------6---------------------6-------------|
E|-------------------------------------------|
  A     D        E     A       D       E


VERSE
A
Now we have been through the harvest
D                  A
Winter has truly begun
                          E            D
Now we have walked in the chill of the night
       A            D            E
We are waiting for, waiting for

For the Saviour's Day

A
Many have come from the valleys
D                       A
Many have come from the hills
                        E       D
Many have started their journey home
      A             D            E 
To be with someone, with someone
                 D  D7 D6 D
on the Saviour's Day


CHORUS
A                 D
Open your eyes on Saviour's Day
E                  D     A
Don't look back or turn away
                             Bm   D D7 D6 D
Life can be your's if you'll only staaaay
      A            D           E
He is calling you, calling you
                 A
On the Saviour's Day


VERSE
A
Joining the old and the young ones
D                         A
Joining the black and the white
                        E         D
Meeting the need of the hungry is he
        A       D        E
Will we ever remember him
                 D  D7 D6 D
On the Saviour's Day


CHORUS
A                 D
Open your eyes on Saviour's Day
E                  D     A
Don't look back or turn away
                             Bm   D D7 D6 D
Life can be your's if you'll only staaaay
      A            D           E
He is calling you, calling you
                 D   Dmaj7
On the Saviour's Day


PAN FLUTE SOLO
e|---------------------------------------------------------------------------|
B|-----------------8-------------------------------------------8-9-----------|
G|------------8-10--------------------------------------8-10-----------------|
D|8-----8-10-----------------------8-10-8----8-8-8-8-10----------------------|
A|-----------------------11--11-11-------------------------------------------|
E|---------------------------------------------------------------------------|
  D                      G              D                 A      G


e|---------------------------------------------------------------------------|
B|8-9-11-----11--------------------------------------------------------------|
G|-------8-8----8-8-8---10---------------------------------------------------|
D|---------------------------------------------------------------------------|
A|---------------------------------------------------------------------------|
E|---------------------------------------------------------------------------|
      D      G      A

VERSE
A
Here's to the God of the present
(Raise your glasses)
D                        A
Here's to the God of the past
(Drink to the King)
                          E         D
Here's to the hope in the future he brings
        A            D          E
We will sing to him, sing to him
                 D  D7 D6 D
On the Saviour's Day


CHORUS
A                 D
Open your eyes on Saviour's Day
E                  D     A
Don't look back or turn away
                             Bm   D D7 D6 D
Life can be your's if you'll only staaaay
      A            D           E
He is calling you, calling you
                 A
On the Saviour's Day


REPEAT INTRO CHORDS TO FADE...

On the Saviour's Day
On the Saviour's Day
He is calling you on the Saviour's Day
On the Saviour's Day
(Calling, calling, calling you)
On the Saviour's Day
(Calling, calling, calling you)
On the Saviour's Day
(Calling, calling, calling you)
(Calling, calling, calling you)
(Calling, calling...)
Raise your glasses drink to the King...
Tap to rate this tab
# A B C D E F G H I J K L M N O P Q R S T U V W X Y Z