Song name
# A B C D E F G H I J K L M N O P Q R S T U V W X Y Z

Clifford Brown - Sandu tab

-------------------------------------------------------------------------------
			     SANDU- Clifford Brown & Max Roach
-------------------------------------------------------------------------------
Tabbed by: JaronGuy
Email: cardboy9@Yahoo.com
http://www.youtube.com/watch?v=kwlrMxapIQE

I gotta give some credit to a blog post on a jazz guitar blog:
http://marioabbagliatijazzguitar.blogspot.com/2008/07/clifford-brown-sandu.html

I think this tab will be easier to play though. Enjoy!

e|-----------------------11-------------------------11--------------11------|
B|------------11h13p11-------------------11--------------7---(7)------------|
G|-------12--------------------------12------13------------8----------------|
D|---13--------------------------13-----------------------------------------|
A|--------------------------------------------------------------------------|
E|--------------------------------------------------------------------------|

e|-----------11-----9--6----------------------------------|
B|--------11--------------9-----7---9---7-----------------|
G|-----12--------------------8----8-----------------------|
D|--13----------------------------------------------------|
A|--------------------------------------------------------|
E|--------------------------------------------------------|

e|--11----9--6----------------------------------------------|
B|--------------9--7-----9-----8----------------------------|
G|--------------------8-----8--------8----------------------|
D|----------------------------------------------------------|
A|----------------------------------------------------------|
E|----------------------------------------------------------|

e|--11----9--6-----------------------------------------------|
B|--------------9--7-----10-10-9-9--7------------------------|
G|--------------------8---------------8--6-----6----7--8-----|
D|------------------------------------------8-----8----------|
A|-----------------------------------------------------------|
E|-----------------------------------------------------------|

e|--------------------------------------------------|
B|--8-7-6---8-9-11----------------------------------|
G|--------------------------------------------------|
D|--------------------------------------------------|
A|--------------------------------------------------|
E|--------------------------------------------------|


************************************

| /   slide up
| \   slide down
| h   hammer-on
| p   pull-off
| ~   vibrato
| +   harmonic
| x   Mute note
| b   Bend
| pb  Pre-bend
| br  Bend release
| pbr Pre-bend release
| brb Bend release bend

************************************
Tap to rate this tab
# A B C D E F G H I J K L M N O P Q R S T U V W X Y Z