Song name
# A B C D E F G H I J K L M N O P Q R S T U V W X Y Z

Climax - Precious And Few tab

Help us improve GuitareTab! Take a short survey!
I could not find an official Climax website, but here's the Wikipedia entry:
http://en.wikipedia.org/wiki/Climax_%28band%29


There's not many tabs for Climax out there (or many other oldies artists),
so I tabbed one of their more famous songs. Enjoy.

Climax
"Precious and Few"

Standard Tuning

Intro:
|--4----------------------4----5----------------------4---------|
|------5--7----------7-------------5--7----------7--------------|
|--------------6--6------------------------4--4-----------------|
|---------------------------------------------------------------|
|---------------------------------------------------------------|
|---------------------------------------------------------------|

Verse 1 & 2:
|--5~----------------------------------7~----------------7~----------------(5)-----------|
|--5~---------------10~----------------8~----------------7~----------------(5)-----------|
|--6~----------------7~----------------7~----------------7~----------------(6)-----------|
|--7~----------------7~----------------7~----------------7~----------------(7)-----------|
|----------------------------------------------------------------------------------------|
|----------------------------------------------------------------------------------------|

Chorus 1 & 2:
|--------------------4-----------------5------------------7----------|
|--7-----------------6-----------------5------------------7----------|
|--7-----------------6-----------------6------------------7----------|
|--7-----------------6-----------------7------------------7----------|
|--------------------------------------------------------------------|
|--------------------------------------------------------------------|


|---------------------5-------------------------------------5----7----5--------------|
|--7------------------5------------------7------------------5----7----5--------------|
|--7------------------6------------------7------------------6----7----6--------------|
|--7------------------7------------------7------------------7----7----7--------------|
|------------------------------------------------------------------------------------|
|------------------------------------------------------------------------------------|

   Precious    and    few    are   the   moments     we     two  can  share

Intro to 2nd Verse (Optional):
|--5--------7-------|
|--5--------7-------|
|--6--------7-------|
|--7--------7-------|
|-------------------|
|-------------------|

Bridge:
|---------------------------------------------------------------------------------|
|---------------------------------------------------------------------------------|
|---------------------------------------------------------------------------------|
|--7~----7h8--10----5~----3~--------3--2h3--3----5----3---5---7~------------------|
|---------------------------------------------------------------------------------|
|---------------------------------------------------------------------------------|

Chorus 3:
|---------------------5------------------6------------------8----------|
|--8------------------7------------------6------------------8----------|
|--8------------------7------------------7------------------8----------|
|--8------------------7------------------8------------------8----------|
|----------------------------------------------------------------------|
|----------------------------------------------------------------------|

|---------------------6-------------------------------------6----8----6--------------|
|--8------------------6------------------8------------------6----8----6--------------|
|--8------------------7------------------8------------------7----8----7--------------|
|--8------------------8------------------8------------------8----8----8--------------|
|------------------------------------------------------------------------------------|
|------------------------------------------------------------------------------------|


   Precious    and    few    are   the   moments     we     two  can  share


Verse 3:
|--7-------------------------------------9------------------7----------------|
|--7-----------------12-----------------10------------------9----------------|
|--8------------------9------------------9------------------9----------------|
|--9------------------9------------------9------------------9----------------|
|----------------------------------------------------------------------------|
|----------------------------------------------------------------------------|


Chorus 4:
|---------------------6------------------7------------------9----------|
|--9------------------8------------------7------------------9----------|
|--9------------------8------------------8------------------9----------|
|--9------------------8------------------9------------------9----------|
|----------------------------------------------------------------------|
|----------------------------------------------------------------------|

|---------------------7-------------------------------------7----9----7--------------|
|--9------------------7------------------9------------------7----9----7--------------|
|--9------------------8------------------9------------------8----9----8--------------|
|--9------------------9------------------9------------------9----9----9--------------|
|------------------------------------------------------------------------------------|
|------------------------------------------------------------------------------------|


   Precious    and    few    are   the   moments     we     two  can  share

Outro:
|--7---------------------7----9---------------------7----10-------------10-------------11~---------|
|-----7--9----------9------------7--9----------9-------------11--13--------11--13------------------|
|-------------8--8-----------------------6--6------------------------------------------------------|
|--------------------------------------------------------------------------------------------------|
|--------------------------------------------------------------------------------------------------|
|--------------------------------------------------------------------------------------------------|


The End!
Related for Precious And Few tab