Song name
# A B C D E F G H I J K L M N O P Q R S T U V W X Y Z

Clint Mansell - The Wrestler tab

-------------------------------------------------------------------------------
			     The Wrestler - Clint Mansell
-------------------------------------------------------------------------------
Tabbed by: Tim West
Email: tim17west@hotmail.com

Tuning: Standard

Some music from a new Aronofsky film, tabbed by listening to the song on Clint Mansell's 
page.

0:05 - 0:27 Reverb
e|-----------------------------------------------------------------------------------|
B|-----------------------------------------------------------------------------------|
G|---7---7--7---7----------6---6--6---6----------7---7--7----7----------6---6--6---6-|
D|-9---9------9----------9---9------9----------9---9------9-----------9---9------9---|
A|-----------------------------------------------------------------------------------|
E|-----------------------------------------------------------------------------------|

0:28 - 0:50
e|-----------------------------------------------------------------------------------|
B|-----------------------------------------------------------------------------------|
G|---9---9--9---7----------6---6--6---6----------9---9--9---7----------6---6--6------|
D|-9---9------9----------9---9------9----------9---9------9----------9---9------9--9-|
A|-----------------------------------------------------------------------------------|
E|-----------------------------------------------------------------------------------|

0:57 - 1:44
e|----------------------------------------------------------------|
B|----------------------------------------------------------------|
G|----7---7--7---7----------6---6--6---6--------------------------| [REPEAT]
D|--9---9------9----------9---9------9----------------------------|
A|----------------------------------------------------------------|
E|----------------------------------------------------------------|

1:46  /-or-\
e|---7------2----------------------------------------------------------------|
B|---7------3----------------------------------------------------------------|
G|---7------4----------------------------------------------------------------|
D|---9------4----------------------------------------------------------------|
A|---9-----------------------------------------------------------------------|
E|---------------------------------------------------------------------------|

1:50 - 2:53
Its kinda hard to hear whats going on here, just strum of pick the chord a couple of times

2:54 - 3:45 e|--9-----9-----7-----5--7--9--9-----12-----7--9---5------------------|
B|--10----9-----7-----5--7--9--10----10-----8--10--7------------------------------|
G|--9-----9-----7-----6--7--9--9-----9------7--9---7------------------------------|REPEAT]
D|--11----11----9-----7--9--11-11----11-----9--11--7------------------------------|
A|--------------------------------------------------------------------------------|
E|--------------------------------------------------------------------------------|

3:47 - 4:07
e|---------------------------------------------------------------------------|
B|---------------------------------------------------------------------------|
G|-------------6-------------------7-----------------------------------------|
D|---------7-------7-----------9-------9-------------------------------------|
A|-----------7-------7-----------7-------9-----------------------------------|
E|-12\---5-------------------7-----------------------------------------------|

4:08 - 4:12
e|----------------------12-----------------------------------------------------|
B|----------------------12-----------------------------------------------------|
G|----------------------13-----------------------------------------------------|
D|----------12----------14-----------------------------------------------------|
A|----12-------12-------14-----------------------------------------------------|
E|-10----10-------10----12-----------------------------------------------------|

4:37 - 5:16 Heavy Distortion
e|---------------------------------2-2--------------------------------|
B|--2/4/5^-------------------------2-2--------------------------------|
G|--2/4/5^---------2-------2h4^----4^6------2-------2h4^2-------------|
D|--2/4/5^-------4-2-4-2h4-2h4^-----------4-2-4-2h4-2h4^24------------|
A|---------------4---4-2h4----------------4---4-2h4------4------------|
E|--------------------------------------------------------------------|

5:25
e|---------------------------------------------------------------------------|
B|---------------------------------------------------------------------------|
G|---------------------------------------------------------------------------|
D|---7---7---7---7---7---7---7---7---6---6---6---6---6---6---6---------------|
A|-9---9---9---9---9---9---9---9---9---9---9---9---9---9---9---9-------------|
E|---------------------------------------------------------------------------|

Outro
e|---------------------------------------------------------------------------|
B|-12-12--12-12--12-12--12-12--10-10--10-10--10-10--10-10--------------------|
G|---------------------------------------------------------------------------|
D|---------------------------------------------------------------------------|
A|---------------------------------------------------------------------------|
E|---------------------------------------------------------------------------|

e|-----------------------0----------------------------------------------------|
B|---2-3-2---------------0----------------------------------------------------|
G|-4-------4-2-2/4-------1----------------------------------------------------|
D|-----------------------2----------------------------------------------------|
A|-----------------------2----------------------------------------------------|
E|-----------------------0----------------------------------------------------|

e|-0-0--5-5--0-0--5-5--0-0--5-5--0-0--5-5--0-0--7-7--0-0--7-7--0-0--7-7--0-0--7-7-|
B|--------------------------------------------------------------------------------|
G|--------------------------------------------------------------------------------|
D|--------------------------------------------------------------------------------|
A|--------------------------------------------------------------------------------|
E|--------------------------------------------------------------------------------|

I believe that's all of it, tell me if you see anything wrong and I'll correct it; I
the films good.

Please rate so I know how good/bad the tab is.
Thanks

| /  slide up
| \  slide down
| h  hammer-on
| p  pull-off
| ~  vibrato
| +  harmonic
| x  Mute note
===============================================================================
Tap to rate this tab
 
# A B C D E F G H I J K L M N O P Q R S T U V W X Y Z