Song name
# A B C D E F G H I J K L M N O P Q R S T U V W X Y Z

Clint Mansell - Coney Island Dreaming tab

Song: Coney Island Dreaming
Composer: Clint Mansell
Soundtrack: Requiem for a Dream
Tuning: Drop D

Synthesizer
Before the first note there is a 5p2 on the d string
2x
|-------------------------------------------------------------------------|
|-------------------------------------------------------------------------|
|-------------------------------------------------------------------------|
|-------------------------------------------------------------------------|
|-------------------------------------------------------------------------|
|-2~--------------0-h2~-----------------2~------------0-h2~---------------|

|-------------------------------------------------------------------------|
|-------------------------------------------------------------------------|
|-------------------------------------------------------------------------|
|-------------------------------------------------------------------------|
|-------------------------------------------------------------------------|
|-2~--------------0-h2~-----------------2~------------0-h2~---------------|

(the 0 and the 2 when hammered on should ring with the 2, but too do that we'd need a 
obscure tuning...)

Melody
0:17
|-12-----------------12-----------------12---------------12---------------|
|-----13----------13-----13----------13-----13---------------13-----------|
|---------14-----------------14-----------------14---------------14-------|
|-------------------------------------------------------------------------|
|-------------------------------------------------------------------------|
|-------------------------------------------------------------------------|

0:43
|-12--------------12-12-----------------22--22--22-------22--20--17-22----|
|-----13------13---------13-----------------------------------------------|
|---------14-----------------14-------------------------------------------|
|-------------------------------------------------------------------------|
|-------------------------------------------------------------------------|
|-------------------------------------------------------------------------|
Tap to rate this tab
# A B C D E F G H I J K L M N O P Q R S T U V W X Y Z