Song name
# A B C D E F G H I J K L M N O P Q R S T U V W X Y Z

Clint Mansell - Marion Barfs tab

Song: Marion Barfs
Composer: Clint Mansell
Soundtrack: Requiem for a Dream
Tuning: Drop D


(in this song, every part comes in, and combines with all the previous parts)

Piano
Repeat throughout Song
|-------------------------------------------------| 
|-------------------------------------------------|
|-15-14-12----15-14-12----15-14-12----17-15-14-15-|
|----------12----------12----------12-------------| 
|-------------------------------------------------|
|-------------------------------------------------|

Backing Strings
|-------------------------------------------------| 
|-------------------------------------------------|
|-------------------------------------------------|
|-5-----------------------1-----------0-----------| 
|-5-----------------------1-----------0-----------|
|-5-----------------------1-----------0-----------|

2nd time through a single violin comes in on the high e string
|-5h6p5h6p5h6p5h6p5h6p5h6p5h6p5h6p-------------------|


Lead Strings (0:14)
|-------------------------------------------------| 
|-8~----------------------10~---------11~---------|
|-------------------------------------------------|
|-------------------------------------------------| 
|-------------------------------------------------|
|-------------------------------------------------|

|-------------------------------------------------| 
|-8~----------------------6~----------4~----------|
|-------------------------------------------------|
|-------------------------------------------------| 
|-------------------------------------------------|
|-------------------------------------------------|


Rhythm Stings (0:28)
|-6-----6-----6-----6-----6-----6-----6-----6-----| 
|-------------------------------------------------|
|-------------------------------------------------|
|-------------------------------------------------| 
|-------------------------------------------------|
|-------------------------------------------------|

|-5-----5-----5-----5-----8-----8-----8-----5-----| 
|-------------------------------------------------|
|-------------------------------------------------|
|-------------------------------------------------| 
|-------------------------------------------------|
|-------------------------------------------------|


Lead Melody (0:57)
2x
|-6-3-----6-3-6-3-----6-3-6-3-----6-3-6-3-6-3-6-3-| 
|-------------------------------------------------|
|-------------------------------------------------|
|-------------------------------------------------| 
|-------------------------------------------------|
|-------------------------------------------------|

|-6-5-----6-5-6-5-----6-5-6-5-----6-5-6-5-6-5-6-5-| 
|-------------------------------------------------|
|-------------------------------------------------|
|-------------------------------------------------| 
|-------------------------------------------------|
|-------------------------------------------------|

Then
2x
|-6\5-5\3-3---6-6-6\5-5\3-3---6-6-6\5-5\3-3---3-3-3/5-5-5-5/6-6-6----| 
|--------------------------------------------------------------------|
|--------------------------------------------------------------------|
|--------------------------------------------------------------------| 
|--------------------------------------------------------------------|
|--------------------------------------------------------------------|


Lead Melody Ends
Leads Strings (1:40)
|-------------------------------------------------| 
|-8~----------------------11~---------13~---------|
|-------------------------------------------------|
|-------------------------------------------------| 
|-------------------------------------------------|
|-------------------------------------------------|

|-------------------------------------------------| 
|-8~----------------------6~----------4~----------|
|-------------------------------------------------|
|-------------------------------------------------| 
|-------------------------------------------------|
|-------------------------------------------------|

Lead Melody (1:54)  
|-6-3-----6-3-6-3-----6-3-6-3-----6-3-6-3-6-3-6-3-| 
|-------------------------------------------------|
|-------------------------------------------------|
|-------------------------------------------------| 
|-------------------------------------------------|
|-------------------------------------------------|

|-6-5-----6-5-6-5-----6-5-6-5-----6-5-6-5-6-5-6-5-| 
|-------------------------------------------------|
|-------------------------------------------------|
|-------------------------------------------------| 
|-------------------------------------------------|
|-------------------------------------------------|

|-6-3-----6-3-6-3-----6-3-6-3-----6-3-6-3-6-3-6-3-| 
|-------------------------------------------------|
|-------------------------------------------------|
|-------------------------------------------------| 
|-------------------------------------------------|
|-------------------------------------------------|

Ending: Piano (2:16)
|-------------------------------------------------|-----| 
|-------------------------------------------------|-----|
|-15-14-12----15-14-12----15----14----12----------|-15~-|
|----------12----------12-------------------12----|-----| 
|-------------------------------------------------|-----|
|-------------------------------------------------|-----|
Tap to rate this tab
# A B C D E F G H I J K L M N O P Q R S T U V W X Y Z