Clint Mansell - Lux Aeterna tab

Lux Æterna
Requiem for a Dream
Clint Mansell
702TYGhost
Scorpio1750@hotmail.com

This tab is based on a piece of sheet music that I was able to find at scribd.com
(http://www.scribd.com/doc/4183379/Clive-Mansell-Lux-Aeterna-Requiem-for-a-Dream-Piano-and-Violin).
I have not been able to test how the three different parts sound together, but I know 
that the melody (Guitar III) sounds very much like the original. I hope that this is
what you have been looking for; enjoy!

Tuning: Drop D

Guitar I
e|-------|--------|     |------|-------|-----||
b|o------|-------o|     |------|-------|-----||
g|--5----|--------| x14 |-5----|-(5)---|-----||
D|-------|-6--5---|     |------|-------|-----||
A|o-3----|-------o|     |-3----|-(3)---|-2---||
D|-------|-6--5---|     |------|-------|-----||

Guitar II
e|------------------|------------------|
b|o-----------------|-----------------o|
g|------------------|------------------| x4
D|------------------|------------------|
A|o-1-0-----1-0-----|-1-0-----3-1-----o|
D|------5-0-----5-0-|-----5-0-----5-0--|

e|------------------|-----------------|-----------------|------------------|
b|o-----------------|-----------------|-----------------|-----------------o|
g|--0---0---0---0---|-0---0---0---0---|-0---0---0---0---|-2---2---2---0----| x2
D|-[5]-[5]-[5]-[5]--|[5]-[5]-[5]-[5]--|[5]-[5]-[5]-[5]--|[7]-[7]-[7]-[5]---|
A|o-1-0-----1-0-----|-1-0-----3-1-----|-1-0-----1-0-----|-1-0-----3-1-----o|
D|------5-0-----5-0-|-----5-0-----5-0-|-----5-0-----5-0-|-----5-0-----5-0--|

e|------------------|-----------------|-----------------|------------------|
b|o-----------------|-----------------|-----------------|-----------------o|
g|--0---0---0---0---|-0---0---0---0---|-----------------|-2---2---2---0----| x3
D|-[5]-[5]-[5]-[5]--|[5]-[5]-[5]-[5]--|-3---3---3---3---|[7]-[7]-[7]-[5]---|
A|o-1-0-----1-0-----|-1-0-----3-1-----|-1-0-----1-0-----|-1-0-----1-0-----o|
D|------5-0-----5-0-|-----5-0-----5-0-|-----5-0-----5-0-|-----5-0-----5-0--|

e|------------------||
b|------------------||
g|--0---0---0---0---||
D|-[5]-[5]—[5]-[5]--||
A|--1-0-----1-0-----||
E|------5-0-----5-0-||

Guitar III
e|--------|
b|o------o|
g|--[==]--| x3
D|--------|
A|o------o|
D|--------|

e|------|-------|-----|--------|
b|o-----|-------|-----|-------o|
g|------|-2--3--|-----|--------| x3
D|--5---|-------|-5---|-3--1---|
A|o-----|-------|-----|-------o|
D|------|-------|-----|--------|

e|--------------------|--------------------------|
b|o-------------------|--------------------------|
g|--3-0--3-0-3-0--3-0-|-3-0--3-0-3-0-3-0-3-0-3-0-|
D|--------------------|--------------------------|
A|o-------------------|--------------------------|
D|--------------------|--------------------------|

e|-------------------|---------------------------|
b|-------------------|--------------------------o|
g|-3-2--3-2-3-2--3-2-|-3-2--3-2-3-2-3-2-3-2-3-2--| x2
D|-------------------|---------------------------|
A|-------------------|--------------------------o|
D|-------------------|---------------------------|

e|--------------------------------|-------------------------------|
b|o-------------------------------|------------------------------o|
g|--3-3-2-2-0--3-3-3-3-2-2-0--3-3-|-3-3-2-2-0--0-0-0-2-2--2-3-3---| x2
D|--------------------------------|-------------------------------|
A|o-------------------------------|------------------------------o|
D|--------------------------------|-------------------------------|

e|--------|------|-------|
b|o----1--|------|-------|
g|--2-----|-[==]-|-------|
D|--------|------|-3--1--|
A|o-------|------|-------|
D|--------|------|-------|

e|-------------------|--------------------------|
b|-------------------|--------------------------|
g|-3-0--3-0-3-0--3-0-|-3-0--3-0-3-0-3-0-3-0-3-0-|
D|-------------------|--------------------------|
A|-------------------|--------------------------|
D|-------------------|--------------------------|


e|-------------------|--------------------------|
b|-------------------|--------------------------|
g|-3-2--3-2-3-2--3-2-|-3-2--3-2-3-2-3-2-3-2-3-2-|
D|-------------------|--------------------------|
A|-------------------|--------------------------|
D|-------------------|--------------------------|

e|-------------------|--------------------------|
b|-------------------|--------------------------|
g|-3-0--3-0-3-0--3-0-|-3-0--3-0-3-0-3-0-3-0-3-0-|
D|-------------------|--------------------------|
A|-------------------|--------------------------|
D|-------------------|--------------------------|

e|--------|    |-||
b|o------o|    |-||
g|--[==]--| x3 |-||
D|--------|    |-||
A|o------o|    |-||
D|--------|    |-||
Tap to rate this tab
 
# A B C D E F G H I J K L M N O P Q R S T U V W X Y Z