Song name
# A B C D E F G H I J K L M N O P Q R S T U V W X Y Z

Clint Mansell - An End Once And For All tab

-----------------------------------------------------------------------------
                  An End Once and For All  -  Clint Mansell                  
-----------------------------------------------------------------------------

Tabbed by: guitarist69r
Email: gamer69r@gmail.com

This is my first tab and it's all done by ear, it sounds really good.
I decided to tab this after playing Mass Effect 3 =P
Enjoy!

Tuning: C F A# D# G c

Finger Picking

 C|---------------0--------------------------------------------------------
 G|--4-------------------------4------------4----------------4-------------
D#|---------------------------------------------------4--6-----------------
A#|--------6------------2------------4------------6------------------6-----
 F|-----6------------2------------4------------6------------------6--------
 C|--4------------0------------2------------4------------------4-----------



  -----2-----------------0-------------------------------
  --------------2-----------------4--------7--------6----      
  -----------4-----------------6-----------------8-------
  --------4-----------------6-----------------8----------
  -----2-----------------4-----------------6-------------
  -------------------------------------------------------



  ---------------0---------2-0-------------------------------------------
  --4---------4-----------------4--------4-2--4--------------4-----------
  --------4-6------------1-------------3----------------4-6-----------4--
  ------6--------------2-------------4--------------6-8-------------6----
  ----6--------------2-------------4--------------6---------------6------
  --4--------------0-------------2--------------4---------------4--------



  -----11---2----------------11---0--------------11---------------
  ----9--9--------2---------9--9--------4-------9--9--7-----6-7---
  --------------4---------------------6-------------------8-------
  ------------4---------------------6-------------------8---------
  ----------2---------------------4-------------------6-----------
  ----------------------------------------------------------------



  ---4--------0-------4-------0-------4-------2--------4--------6------
  ---4--------0-------4-------0-------4-------4--------5--------7------
  ---4--------1-------4-------1-------4-------4--------6--------8------
  ---6--------2-------6-------2-------6-------4--------6--------8------
  ---6--------2-------6-------2-------6-------2--------4--------6------
  ---4--------0-------4-------0-------4--------------------------------



  ----------------0--------2-0-----------------------------------------------
  --4---------4-7--------------0--4---------4-2--4------------4-----------4--
  --------4-6------------1----------------3----3---------4-6------------4----
  ------6--------------2----------------4-------------6-8-------------6------
  ----6--------------2----------------4-------------6---------------6--------
  --4--------------0----------------2-------------4---------------4----------

  --11-----11-14-12-------14-12---11--------11---11-----------11-------------
  -------14-----------------------------------14--------12-14----------------
  ---------------------------------------------------------------------------
  ---------------------------------------------------------------------------
  ---------------------------------------------------------------------------
  ---------------------------------------------------------------------------



  -----11----------------11-----------------11---------------------
  --9-----9-----------9-----9-----------9------9-------------------
  ----------11-----------------9------------------11---------------
  -----------------------------------------------------------------
  -----------------------------------------------------------------
  -----------------------------------------------------------------

  -----------2-----------------0-----------------------------------
  -----------------2--4--------------4--5----------7-----6--7------
  ---------------4-----------------6-------------------8-----------
  -------------4-----------------6-------------------8-------------
  -----------2-----------------4-------------------6---------------
  -----------------------------------------------------------------



  ---4--------0-------2---------------4--------0--------2---------------
  ---4--------0-------2---------------4--------0--------2-------7-------
  ---4--------1-------3-------8-------4--------1--------3-------8-------
  ---6--------2-------4-------8-------6--------2--------4-------8-------
  ---6--------2-------4-------6-------6--------2--------4-------6-------
  ---4--------0-------2---------------4--------0--------2---------------

  ----------------9--------------------------------9--------------------
  ---9----11--12----------9---11--12--9----11--12-----------9---11--12--
  --------------------11--------------------------------11--------------
  ----------------------------------------------------------------------
  ----------------------------------------------------------------------
  ----------------------------------------------------------------------



  ---4--------0--------2--------4--------4--------0--------2--------4----
  ---4--------0--------2--------4--------4--------0--------2--------4----
  ---4--------1--------3--------4--------4--------1--------3--------4----
  ---6--------2--------4--------6--------6--------2--------4--------6----
  ---6--------2--------4--------6--------6--------2--------4--------6----
  ---4--------0--------2--------4--------4--------0--------2--------4----

  -----------------------------------11----------------------------------
  --------------------------------9----9---------------------------------
  ---------------------------------11------------------------------------
  -----------------------------------------------------------------------
  -----------------------------------------------------------------------
  -----------------------------------------------------------------------



  ---4-------0-------2-------4------4------2------4------6-----------------
  ---4-------0-------2-------4------4------4------5------7-----------------
  ---4-------1-------3-------4------4------4------6------8-----9---11--13--
  ---6-------2-------4-------6------6------4------6------8-----9---11--13--
  ---6-------2-------4-------6------6------2------4------6-----7---9---11--
  ---4-------0-------2-------4------4--------------------------------------



************************************

| /   slide up
| \   slide down
| h   hammer-on
| p   pull-off
| ~   vibrato
| +   harmonic
| x   Mute note
| b   Bend
| pb  Pre-bend
| br  Bend release
| pbr Pre-bend release
| brb Bend release bend

************************************
Tap to rate this tab
# A B C D E F G H I J K L M N O P Q R S T U V W X Y Z