Song name
# A B C D E F G H I J K L M N O P Q R S T U V W X Y Z

Clint Mansell - First Person Shooter tab

From the Movie 'Doom'; based on the bestselling video game series.

Clint Mansell: 'First Person Shooter' track 09 Doom OST

Tabulature by Antony O'Sullivan

10th July 2006 4:37PM GMT

This is played throughout the film; although the best use is the 'First Person' section 
near the end...the bit all the Doom fans went to see ;)

There are irregular intervals involving percussion and synthesizers; but im pretty sure 
tab is 100% correct. I've also put the times above the tab to show when the parts are 
in the song. Once you hear the song you will get the timing right.

Standard :ebgdaE: tuning

Happy Playing!   donthedragon@hotmail.co.uk

_________________________________________Doom_______________________________________________

 0:27


e|-------------------------------|
b|--------4~~4h5/4~~---4~~-------|
g|-------------------------------|
d|--2----------------------------|
a|--2--let ring------------------|
E|--0----------------------------|

 0:57

e|-------------------------------------|
b|-------------------------------------|
g|-------------------------------------|
d|-------------------------------------| X3
a|-------------------------------------|
E|--0-0-0--0-0-0-0-0-1-0-0-0-0-0-0-0---|

 |-----------------p.m-----------------|

 1:10

e|-----------------------------------|
b|-----------------------------------|
g|-----------------------------------|
d|-----------------------------------| X4
a|-----7----7----7----7---8/10-------|
E|--00---00---00---00---0------------|

 1:22

Guitar1
e|-----------------------------------|
b|-----------------------------------|
g|----5---4---5---4---5---4---5---4--|
d|--2---2---2---2---2---2---2---2----|
a|-----------------------------------|
E|-----------------------------------|


Guitar2
e|---------------------19^-----------|
b|-----------------------------------|
g|-----------------------------------| *this is a synthesizer but can be emulated with a guitar
d|-----------------------------------|
a|-----------------------------------|
E|-----------------------------------|


1:33

Guitar1
e|---------------------------|
b|---------------------------|
g|---------------------------|
d|---------------------------|
a|---------------------------|
E|--0-0-0--0-0-0-0-0-1-0-0---|

 |-----------------p.m-----------------|


Guitar2
e|---------19^-----------------------|
b|-----------------------------------|
g|-----------------------------------|
d|-----------------------------------|
a|-----------------------------------|
E|-----------------------------------|

1:38

e|-----------------------------------|
b|-----------------------------------|
g|-----------------------------------|
d|-----------------------------------| X2
a|-----7----7----7----7---8/10-------|
E|--00---00---00---00---0------------|

1:51


e|-------------------------------|
b|---- ---4~~4h5/4~~---4~~-------|
g|-------------------------------|
d|--2----------------------------|
a|--2--let ring------------------|
E|--0----------------------------|


2:05

e|-----------------------------------|
b|-----------------------------------|
g|-----------------------------------|
d|-----------------------------------|
a|-----7----7----7----7---8/10-------|
E|--00---00---00---00---0------------|

2:08

Guitar2

e|--19^------------------------------|
b|-----------------------------------|
g|-----------------------------------|
d|-----------------------------------|
a|-----------------------------------|
E|-----------------------------------|

2:17

e|-----------------------------------|
b|-----------------------------------|
g|-----------------------------------|
d|-----------------------------------|X2
a|-----7----7----7----7---8/10-------|
E|--00---00---00---00---0------------|


2:22

Guitar1
e|--19^------------------------------|
b|-----------------------------------|
g|-----------------------------------|
d|-----------------------------------|
a|-----------------------------------|
E|-----------------------------------|


Guitar2 (in background)
e|-------------------------------------|
b|-------------------------------------|
g|-------------------------------------|
d|-------------------------------------|X4
a|-------------------------------------|
E|--0-0-0--0-0-0-0-0-1-0-0-0-0-0-0-0---|

 |-----------------p.m-----------------|

2:34


e|-----------------------------------|
b|-----------------------------------|
g|-----------------------------------|
d|-----------------------------------|
a|-----7----7----7----7---8/10-------|
E|--00---00---00---00---0------------|

2:39

Guitar1
e|-----------------------------------|---------------|
b|-----------------------------------|---------------|
g|----5---4---5---4---5---4---5---4--|--4-5-4---4----|
d|--2---2---2---2---2---2---2---2----|--------5---5--|X?.....
a|-----------------------------------|---------------|
E|-----------------------------------|---------------|

                                          Play this until song fades out...
Guitar2 (in background)
e|-------------------------------------|
b|-------------------------------------|
g|-------------------------------------|
d|-------------------------------------| ..................
a|-------------------------------------|
E|--0-0-0--0-0-0-0-0-1-0-0-0-0-0-0-0---|

 |-----------------p.m-----------------|

P.S My song finishes at 3:16; but my friend tells me that his version finishes at 4:45.

However, he also tells me that my tab has all of the correct bits for the rest of the
song, so until i get this other version this tab will have to do, sorry.

feel free to email me at my hotmail address above.

L8rs
Tap to rate this tab
# A B C D E F G H I J K L M N O P Q R S T U V W X Y Z