Song name
# A B C D E F G H I J K L M N O P Q R S T U V W X Y Z

Clit 45 - Kids Arent Alright tab

Help us improve GuitareTab! Take a short survey!
This song is probably 90% accurate, the only thing missing,
is the little solo riff. But other than that it is pretty correct.
I tried to make it easy to follow along with too.


Clit 45 - "The Kids Aren't Alright"


 Intro/Verse (Riff #1/Guitar 1)

E|-----------------------------|
B|-----------------------------|
G|-666666--------666666--------|
D|-666666-222222-666666-777777-| (Guitar 1 Plays this 4 times)
A|-444444-222222-444444-777777-|
E|--------000000--------555555-|

 (Riff#1/Guitar 2)

E|---------------------|
B|---------------------|
G|-6~~~----------------|
D|-6~~~LET IT RING!!!--| (Guitar 2 plays this on when guitar 1 plays riff#1 the second time...
A|-4~~~----------------|    then continue finishing riff#1)
E|---------------------|

  Bridge #1
E|-------|
B|-------|
G|-------|
D|-6-----| Just kinda mess on that note for a couple measures
A|-6-----|
E|-4-----|

  Build-up riff

E|---------|
B|---------|
G|-------6-|
D|-4-6-7-6-|
A|-4-6-7-4-|
E|-2-4-5---|


  Riff #2
E|-------------------------------|
B|-------------------------------|
G|-666666-999999/-666666---------|  Play this 2 times
D|-666666-999999/-666666--777777-|
A|-444444-777777/-444444--777777-|
E|------------------------555555-|

  Bridge #2
E|------------------------------------|
B|------------------------------------|
G|----------------------------------6-|
D|-6666/7-6666/7-666666666666-4-6-7-6-|
A|-6666/7-6666/7-666666666666-4-6-7-4-|
E|-4444/5-4444/5-444444444444-2-4-5---|

  Riff #1

E|-----------------------------|
B|-----------------------------|
G|-666666--------666666--------|
D|-666666-222222-666666-777777-| (4 times its the backing for the solo) guitar 1 plays 
solo after 2 times...
A|-444444-222222-444444-777777-|  but i dont have the solo tabbed yet.
E|--------000000--------555555-|

Bridge #3

E|---------|
B|---------|
G|---------|
D|-6-6-6---| Let each note ring
A|-6-6-6---|
E|-4-4-4---|

  Build-up riff

E|---------|
B|---------|
G|-------6-|
D|-4-6-7-6-|
A|-4-6-7-4-|
E|-2-4-5---|


  Riff #2
E|-------------------------------|
B|-------------------------------|
G|-666666-999999/-666666---------|  Play this 2 times
D|-666666-999999/-666666--777777-|
A|-444444-777777/-444444--777777-|
E|------------------------555555-|


  Bridge # 4
  Riff #2
E|----------------------------|
B|----------------------------|
G|----------------------------|(2 times)....Then play build-up riff and let last note 
("Oh F*ck! not again")
D|-6-6/7--6-6/7--4-4/5--4-4/5-|
A|-6-6/7--6-6/7--4-4/5--4-4/5-|
E|-4-4/5--4-4/5--2-2/3--2-2/3-|


  Riff #1
E|-----------------------------|
B|-----------------------------|
G|-666666--------666666--------|
D|-666666-222222-666666-777777-| (2 times)
A|-444444-222222-444444-777777-|
E|--------000000--------555555-|

 Bridge #5
E|---------|
B|---------|
G|---------|
D|-6~~~----| "THESE! KIDS!"
A|-6-~~~~--|
E|-4~~~----|

  Build-up riff

E|---------|
B|---------|
G|-------6-|
D|-4-6-7-6-|
A|-4-6-7-4-|
E|-2-4-5---|

  Riff #2
E|-------------------------------|
B|-------------------------------|
G|-666666-999999/-666666---------|  Play this 2 times
D|-666666-999999/-666666--777777-|
A|-444444-777777/-444444--777777-|
E|------------------------555555-|

  Riff #3
E|--------------------------------|
B|--------------------------------|
G|-666666-999999/--------44/--44/-|  Play this 2 times
D|-666666-999999/-777777-44/--44/-|
A|-444444-777777/-777777-22/--22/-|
E|----------------555555----------|

  Build-up riff

E|-------------|
B|-------------|
G|-------6~~~~-|
D|-4-6-7-6~~~~-| Let last note ring, and you're done!!!
A|-4-6-7-4~~~~-|
E|-2-4-5-------|
Related for Kids Arent Alright tab