Song name
# A B C D E F G H I J K L M N O P Q R S T U V W X Y Z

Clit 45 - Broken Unity tab

Clit 45 - Broken Unity
Tales From The Clit (2000)
Tabbed By ruker
Standard Tuning EADGBE

--------------
Key:
--------------
.   Palm Mute
~   Vibrato
h   Hammer-On
p   Pull-Off
b   Bend
r   Release
/   Slide Up
\   Slide Down
--------------

Intro (0:08)  3x
||--------------||
||*------------*||
||--------------||
||--9-----------||
||*-9----------*||
||--7-----------||


Verse (0:16)                                             4x
||---------------------------------------------------------||
||*-------------------------------------------------------*||
||-----------------11--9---11-----------------9---7---9----||
||--9--9-9-9-9-9-9-11--9---11--7--7-7-7-7-7-7-9---7---9----||
||*-9--9-9-9-9-9-9-9---7---9---7--7-7-7-7-7-7-7---5---7---*||
||--7--7-7-7-7-7-7-------------5--5-5-5-5-5-5--------------||


Chorus (0:27)                  4x
||-------------------------------||
||*-----------------------------*||
||------------------11--9---11---||
||--9-9-9-9-9-9-9-9-11--9---11---||
||*-9-9-9-9-9-9-9-9-9---7---9---*||
||--7-7-7-7-7-7-7-7--------------||


Verse (0:32)                                             4x
||---------------------------------------------------------||
||*-------------------------------------------------------*||
||-----------------11--9---11-----------------9---7---9----||
||--9--9-9-9-9-9-9-11--9---11--7--7-7-7-7-7-7-9---7---9----||
||*-9--9-9-9-9-9-9-9---7---9---7--7-7-7-7-7-7-7---5---7---*||
||--7--7-7-7-7-7-7-------------5--5-5-5-5-5-5--------------||


Chorus (0:42)                  4x
||-------------------------------||
||*-----------------------------*||
||------------------11--9---11---||
||--9-9-9-9-9-9-9-9-11--9---11---||
||*-9-9-9-9-9-9-9-9-9---7---9---*||
||--7-7-7-7-7-7-7-7--------------||


Bridge (0:47)
||------------------------|
||------------------------|
||------------------------|
||-9-----7-----6----------|
||-9-----7-----6----------|
||-7-----5-----4----------|

                                                               4x
|----------------------------------------------------------------||
|*--------------------------------------------------------------*||
|----------------------------------------------------------------||
|--9--9-9-9-9-9-9-7--7-7-7-7-7-7-6--6-6-6-6-6-6-6-6-6-6-6-6-6-6--||
|*-9--9-9-9-9-9-9-7--7-7-7-7-7-7-6--6-6-6-6-6-6-6-6-6-6-6-6-6-6-*||
|--7--7-7-7-7-7-7-5--5-5-5-5-5-5-4--4-4-4-4-4-4-4-4-4-4-4-4-4-4--||


Verse (1:10)                                             4x
||---------------------------------------------------------||
||*-------------------------------------------------------*||
||-----------------11--9---11-----------------9---7---9----||
||--9--9-9-9-9-9-9-11--9---11--7--7-7-7-7-7-7-9---7---9----||
||*-9--9-9-9-9-9-9-9---7---9---7--7-7-7-7-7-7-7---5---7---*||
||--7--7-7-7-7-7-7-------------5--5-5-5-5-5-5--------------||


Chorus (1:20)                  4x
||-------------------------------||
||*-----------------------------*||
||------------------11--9---11---||
||--9-9-9-9-9-9-9-9-11--9---11---||
||*-9-9-9-9-9-9-9-9-9---7---9---*||
||--7-7-7-7-7-7-7-7--------------||


Bridge (1:25)
||------------------------|
||------------------------|
||------------------------|
||-9-----7-----6----------|
||-9-----7-----6----------|
||-7-----5-----4----------|

                                                               6x
|----------------------------------------------------------------||
|*--------------------------------------------------------------*||
|----------------------------------------------------------------||
|--9--9-9-9-9-9-9-7--7-7-7-7-7-7-6--6-6-6-6-6-6-6-6-6-6-6-6-6-6--||
|*-9--9-9-9-9-9-9-7--7-7-7-7-7-7-6--6-6-6-6-6-6-6-6-6-6-6-6-6-6-*||
|--7--7-7-7-7-7-7-5--5-5-5-5-5-5-4--4-4-4-4-4-4-4-4-4-4-4-4-4-4--||


Outro (1:56)
 Rhythm                                                  4x
||---------------------------------------------------------|-------------------||
||*-------------------------------------------------------*|-------------------||
||-----------------11--9---11-----------------9---7---9----|-------------------||
||--9--9-9-9-9-9-9-11--9---11--7--7-7-7-7-7-7-9---7---9----|-9-----------------||
||*-9--9-9-9-9-9-9-9---7---9---7--7-7-7-7-7-7-7---5---7---*|-9-----------------||
||--7--7-7-7-7-7-7-------------5--5-5-5-5-5-5--------------|-7-----------------||
|                                                                               |
|Lead                                                                           |
||---------------------------------------------------------|------7------------||
||*-7--------------7-----------5--------------5-----------*|-7------7----------||
||--10b------------10b---------8b-------------8b-----------|-10b----10br\------||
||---------------------------------------------------------|-------------------||
||*-------------------------------------------------------*|-------------------||
||---------------------------------------------------------|-------------------||
Tap to rate this tab
# A B C D E F G H I J K L M N O P Q R S T U V W X Y Z