Song name
# A B C D E F G H I J K L M N O P Q R S T U V W X Y Z

Clit 45 - No More Propaganda tab

Clit 45 - No More Propaganda
Tales From The Clit (2000)
Tabbed By ruker (Varuker@gmail.com)
Standard Tuning EADGBE


Pre-Chorus (0:00)
 Left Guitar
||-----------------------------------------------------------------------||
||*---------------------------------------------------------------------*||
||----------8--9--8----------9--11-11---------8--9--8--11-11-1111111111--||
||--9-9999998--9--8--9-9999999--11-11-9-9999998--9--8--11-11-1111111111--||
||*-9-9999996--7--6--9-9999997--9--9--9-9999996--7--6--9--9--9-9-9-9-9--*||
||--7-777777---------7-777777---------7-777777---------------------------||
|                                                                         |
|Right Guitar                                                             |
||-----------------------------------------------------------------------||
||*---------------------------------------------------------------------*||
||-----------------------------------------------------11-11-1111111111--||
||--9----------------9-9--------------9----------------11-11-1111111111--||
||*-9----------------9-9--------------9----------------9--9--9-9-9-9-9--*||
||--7----------------7-7--------------7----------------------------------||


Chorus (0:11)
 Both Guitars                                                          4x
||-----------------------------------------------------------------------||
||*---------------------------------------------------------------------*||
||----------8--9--8----------9--11-11---------8--9--8--11-11-1111111111--||
||--9-9999998--9--8--9-9999999--11-11-9-9999998--9--8--11-11-1111111111--||
||*-9-9999996--7--6--9-9999997--9--9--9-9999996--7--6--9--9--9-9-9-9-9--*||
||--7-777777---------7-777777---------7-777777---------------------------||


Verse (0:35)
||-----------------------------------------------------------------------------------------||
||*---------------------------------------------------------------------------------------*||
||-------------------------11-111111111111-------------------------------9-999999----------||
||--11-1111111111119-99999911-11111111111111-1111111111119-9999997-7777779-9999999-999999--||
||*-11-1111111111119-9999999--9-9-9-9-9-9-11-1111111111119-9999997-7777777-7777779-999999-*||
||--9--9-9-9-9-9-9-7-777777---------------9--9-9-9-9-9-9-7-7777775-555555--------7-777777--||


Chorus (0:47)
 Both Guitars                                                          4x
||-----------------------------------------------------------------------||
||*---------------------------------------------------------------------*||
||----------8--9--8----------9--11-11---------8--9--8--11-11-1111111111--||
||--9-9999998--9--8--9-9999999--11-11-9-9999998--9--8--11-11-1111111111--||
||*-9-9999996--7--6--9-9999997--9--9--9-9999996--7--6--9--9--9-9-9-9-9--*||
||--7-777777---------7-777777---------7-777777---------------------------||


Verse (1:10)
||-----------------------------------------------------------------------------------------||
||*---------------------------------------------------------------------------------------*||
||-------------------------11-111111111111-------------------------------9-999999----------||
||--11-1111111111119-99999911-11111111111111-1111111111119-9999997-7777779-9999999-999999--||
||*-11-1111111111119-9999999--9-9-9-9-9-9-11-1111111111119-9999997-7777777-7777779-999999-*||
||--9--9-9-9-9-9-9-7-777777---------------9--9-9-9-9-9-9-7-7777775-555555--------7-777777--||


Pre-Chorus (1:22)
 Left Guitar
||-----------------------------------------------------------------------||
||*---------------------------------------------------------------------*||
||----------8--9--8----------9--11-11---------8--9--8--11-11-1111111111--||
||--9-9999998--9--8--9-9999999--11-11-9-9999998--9--8--11-11-1111111111--||
||*-9-9999996--7--6--9-9999997--9--9--9-9999996--7--6--9--9--9-9-9-9-9--*||
||--7-777777---------7-777777---------7-777777---------------------------||
|                                                                         |
|Right Guitar                                                             |
||-----------------------------------------------------------------------||
||*---------------------------------------------------------------------*||
||-----------------------------------------------------11-11-1111111111--||
||--9----------------9-9--------------9----------------11-11-1111111111--||
||*-9----------------9-9--------------9----------------9--9--9-9-9-9-9--*||
||--7----------------7-7--------------7----------------------------------||

Chorus (1:33)
 Both Guitars
||-----------------------------------------------------------------------||
||*---------------------------------------------------------------------*||
||----------8--9--8----------9--11-11---------8--9--8--11-11-1111111111--||
||--9-9999998--9--8--9-9999999--11-11-9-9999998--9--8--11-11-1111111111--||
||*-9-9999996--7--6--9-9999997--9--9--9-9999996--7--6--9--9--9-9-9-9-9--*||
||--7-777777---------7-777777---------7-777777---------------------------||


Bridge (1:45)
||---------------------------------------------------|
||*--------------------------------------------------|
||------------------1111111111119-9-8-8-8-8-8-8-8-8--|
||--9-9-9-9-9-9-9-9-1111111111119-9-8-8-8-8-8-8-8-8--|
||*-9-9-9-9-9-9-9-9-9-9-9-9-9-9-7-7-6-6-6-6-6-6-6-6--|
||--7-7-7-7-7-7-7-7----------------------------------|


|---------------------------------------------------|
|--------------------------------------------------*|
|-----------------13131313131311111010101010101010--|
|-111111111111111113131313131311111010101010101010--|
|-11111111111111111111111111119-9-8-8-8-8-8-8-8-8--*|
|-9-9-9-9-9-9-9-9-----------------------------------|


|------------------------------------|
|*----------------------------------*|
|--13131313131311111010101010101010--|
|--13131313131311111010101010101010--|
|*-1111111111119-9-8-8-8-8-8-8-8-8--*|
|------------------------------------|


|------------------------------------------------||
|------------------------------------------------||
|------------------------------------------------||
|-9-9-9-9-9-9-9-9-9-9-9-9-9-9-9-9-9--------------||
|-9-9-9-9-9-9-9-9-9-9-9-9-9-9-9-9-9--------------||
|-7-7-7-7-7-7-7-7-7-7-7-7-7-7-7-7-7--------------||


Verse (2:03)
||-----------------------------------------------------------------------------------------||
||*---------------------------------------------------------------------------------------*||
||-------------------------11-111111111111-------------------------------9-999999----------||
||--11-1111111111119-99999911-11111111111111-1111111111119-9999997-7777779-9999999-999999--||
||*-11-1111111111119-9999999--9-9-9-9-9-9-11-1111111111119-9999997-7777777-7777779-999999-*||
||--9--9-9-9-9-9-9-7-777777---------------9--9-9-9-9-9-9-7-7777775-555555--------7-777777--||


Outro (2:15)
||----------------||
||----------------||
||----------------||
||-9--------------||
||-9--------------||
||-7--------------||
Tap to rate this tab
# A B C D E F G H I J K L M N O P Q R S T U V W X Y Z