Song name
# A B C D E F G H I J K L M N O P Q R S T U V W X Y Z

Clit 45 - Empty Day tab

Empty Day by Clit 45
Tabbed by Colin Shepherd

----------------------------------------|
-----------2-4-6-----------------6-4-2--|
3-3-3-3-----------1-1-1-1---------------|
----------------------------------------|
----------------------------------------|
----------------------------------------|
repeat 4 times

-------------------------------|
-------------------------------|
---------6-------8-------------|
-8-------6-------8-------------|
-8-------4-------6-------------|
-6-----------------------------|
repeat 6 times

-------------------------|
-------------------------|
--------6----------------|
-8------6----6-----8-----|
-8------4----6-----8-----|
-6-----------4-----6-----|
repeat 4 times

----------------------|
----------------------|
---------6------8-----|
-8-------6------8-----|
-8-------4------6-----|
-6--------------------|
repeat 4 times

------------------------|
------------------------|
--------6---------------|
-8------6-----6-----8---|
-8------4-----6-----8---|
-6-----------4------6---|
repeat 4 times

----------------------|
---------6------8-----|
-8-------6------8-----|
-8-------4------6-----|
-6--------------------|
repeat 8 times
Tap to rate this tab
# A B C D E F G H I J K L M N O P Q R S T U V W X Y Z