Song name
# A B C D E F G H I J K L M N O P Q R S T U V W X Y Z

Clit 45 - Long Beach Kids tab

CLIT 45-LONG BEACH KIDS
Tabbed By Ben H (PunkAsPhuck)

intro
e|------------------------| 
B|------------------------| 
G|-99999999---------------| 
D|-99999999-9-x-x-7-x-x-9-| 
A|-77777777-9-x-x-7-x-x-9-| 
E|----------7-x-x-5-x-x-7-| 

verse (same as intro)
e|------------------------| 
B|------------------------| 
G|-99999999---------------| 
D|-99999999-9-x-x-7-x-x-9-| 
A|-77777777-9-x-x-7-x-x-9-| 
E|----------7-x-x-5-x-x-7-| 

chorus
e|------------| 
B|------------| 
G|-9-x--------| 
D|-9-x-7-x-9--| 
A|-7-x-7-x-9--| 
E|-----5-x-7--|
Tap to rate this tab
# A B C D E F G H I J K L M N O P Q R S T U V W X Y Z