Song name
# A B C D E F G H I J K L M N O P Q R S T U V W X Y Z

Clit 45 - Just Exist tab

Tabbed by: VampireFreak
Email:

Tuning: Standard

*-Palm mute

Go to bottom to get exact order...

Intro
e|---------------------------------------------------------------------------|
B|---------------------------------------------------------------------------|
G|---------------------------------------------------------------------------|
D|---------------------------------------------------------------------------|
A|--5(Let it ring)--5(Let it ring)-------------------------------------------|
E|--3---------------3--------------------------------------------------------|

Verse 1 (Repeat 2 times)
e|---------------------------------------------------------------------------|
B|---------------------------------------------------------------------------|
G|---------------------------------------------------------------------------|
D|---------------------------------------------------------------------------|
A|--777777--9--1010101010101010--555555--7--44444444-------------------------|
E|--555555--7---8-8-8-8-8-8-8-8--333333--5--22222222-------------------------|

Chorus (Repeat 2 times)
e|----------------------------------------------------------------------------|
B|----------------------------------------------------------------------------|
G|----------------------------------------------------------------------------|
D|----------------------------------------------------------------------------|
A|--7777--55--44--7777--55--44--7777--55--44--99999999------------------------|
E|--5555--33--22--5555--33--22--5555--33--22--77777777------------------------|

Solo
e|---------------------------------------------------------------------------|
B|---------------------------------------------------------------------------|
G|---------------------------------------------------------------------------|
D|--15-17-15-17-15-17-15-17--------------------------------------------------|
A|---------------------------------------------------------------------------|
E|---------------------------------------------------------------------------|
(Slide finger up and down A string 4 times)

Solo: Part II
e|---------------------------------------------------------------------------|
B|---------------------------------------------------------------------------|
G|---------------------------------------------------------------------------|
D|--15-17-17-15-17-17-15-17-17-15-17-17-15-17-17-15-17-17-15-17-17-15--------|
A|---------------------------------------------------------------------------|
E|---------------------------------------------------------------------------|

Verse 2
e|---------------------------------------------------------------------------|
B|---------------------------------------------------------------------------|
G|---------------------------------------------------------------------------|
D|---------------------------------------------------------------------------|
A|--5(Fast 26 times)-555555--7--77777--555555--7--10--7-777--7--10--7-777----|
E|--3----------------333333--0--55555--333333--5---8--5-555--5---8--5-555----|

e|---------------------------------------------------------------------------|
B|---------------------------------------------------------------------------|
G|---------------------------------------------------------------------------|
D|---------------------------------------------------------------------------|
A|--7--10--7--7--10--7--10(Let it ring)--------------------------------------|
E|--5---8--5--5---8--5---8---------------------------------------------------|

Back to Verse 1 (Repeat 2 times)
e|----------------------------------------------------------------------------|
B|----------------------------------------------------------------------------|
G|----------------------------------------------------------------------------|
D|----------------------------------------------------------------------------|
A|--7 777777--9--10 10101010--5 5555--7--4 444444-----------------------------|
E|--5 555555--7---8  8-8-8-8--3 3333--5--2 222222-----------------------------|
    * ******  *   *  * * * *  *  * *  *  *  * ***

Ending
e|---------------------------------------------------------------------------|
B|---------------------------------------------------------------------------|
G|---------------------------------------------------------------------------|
D|---------------------------------------------------------------------------|
A|--7--7--7(Let ring)--7--15-------------------------------------------------|
E|--5--5--5------------5--17-------------------------------------------------|
    *  *               *   *

Intro
Verse 1 (Repeat twice)
Chorus (Repeat twice)
Verse 1 (Repeat four times)
Chorus (Repeat twice)
Solo
Verse 1 (Repeat four times)
Chorus (Repeat twice)
Verse 2
Verse 1 (Repeat twice)
Ending

There...
This song took me about two hours to entirely tab and set the rythym. It goes pretty 
but if you listen to the song, you'll be fine. Remember: Do not stake vampire and do not 
zombie's heads.
Tap to rate this tab
# A B C D E F G H I J K L M N O P Q R S T U V W X Y Z