Song name
# A B C D E F G H I J K L M N O P Q R S T U V W X Y Z

Cliteater - Degree Of Risk Involved tab

tabbed by woodlandsclose  

- palm mute           h - hammer on       p - pull off


Tuning: A Standard
                                                                   x2
|-------------------------------------------------------------------|
|.-----------------------------------------------------------------.|
|-------------------------------------------------------------------|
|-------------------------------------------------------------------|
|.-5-5-5-5-2-2-2-2-5-5-5-5-2-2-2-2-5-5-5-5-2-2-2-2--3--3--3-3-3-2--.|
|--3-3-3-3-0-0-0-0-3-3-3-3-0-0-0-0-3-3-3-3-0-0-0-0--1--1--1-1-1-0---|

                   x8                          x8
|-------------------|---------------------------|------------------
|.-----------------.|.-------------------------.|.-----------------
|-------------------|---------------------------|------------------
|-------------------|---------------------------|------------------
|.---3---5---6---5-.|.-------------------------.|.-5-5-5-5-2-2-2-2-
|--0-1-0-3-0-4-0-3--|--0"-1"-4"-1"-0"-1"-3"-1"--|--3-3-3-3-0-0-0-0-
   . . . . . . .
                                                x2                 x8
-------------------------------------------------|------------------|
------------------------------------------------.|.----------------.|
-------------------------------------------------|------------------|
-------------------------------------------------|------------------|
-5-5-5-5-2-2-2-2-5-5-5-5-2-2-2-2--3--3--3-3-3-2-.|.--3---5---6---5-.|
-3-3-3-3-0-0-0-0-3-3-3-3-0-0-0-0--1--1--1-1-1-0--|-0-1-0-3-0-4-0-3--|
                                                   . . . . . . .
                                                                   x4
|-------------------------------------------------------------------|
|.-----------------------------------------------------------------.|
|-------------------------------------------------------------------|
|-------------------------------------------------------------------|
|.-2-2-2-2-2-2-2-2-2-2-2-2-2-2-2h3-3-3-3-3-3-3-3-3-3-3-3-3-3-3-3-2-.|
|--0-0-0-0-0-0-0-0-0-0-0-0-0-0-0h1-1-1-1-1-1-1-1-1-1-1-1-1-1-1-1p0--|
   . . . . . . . . . . . . . .     . . . . . . . . . . . . . . .
                                                                   x2
|-------------------------------------------------------------------|
|.-----------------------------------------------------------------.|
|-------------------------------------------------------------------|
|-------------------------------------------------------------------|
|.-5-5-5-5-2-2-2-2-5-5-5-5-2-2-2-2-5-5-5-5-2-2-2-2--3--3--3-3-3-2--.|
|--3-3-3-3-0-0-0-0-3-3-3-3-0-0-0-0-3-3-3-3-0-0-0-0--1--1--1-1-1-0---|

                  x8
|------------------|
|.----------------.|
|------------------|
|------------------|
|.--3---5---6---5-.|
|-0-1-0-3-0-4-0-3--|
  . . . . . . .
Tap to rate this tab
 
# A B C D E F G H I J K L M N O P Q R S T U V W X Y Z