Song name
# A B C D E F G H I J K L M N O P Q R S T U V W X Y Z

Clockwise - Aware tab

verse      (x2)
d(------------------)(----------)
a(------------------)(------7-5-)
f(------------------)(--2-6-----)
c(--5-55-xx-7-77-xx-)(----------)
g(--3-33-xx-5-55-xx-)(----------)
C(------------------)(----------)

verse(lead)
d(------------------)
a(------------------)
f(------------------)
c(------4-7-----0-2-)
g(----4-------0-----)
C(--4-------0-------)

pre-chorus
d(-------------------)
a(--9-9-9------------)
f(--9-9-9-4-44-44-xx-)
c(--9-9-9-4-44-44-xx-)
g(--7-7-7-2-22-22-xx-)
C(-------------------)

chorus
d(------------------------------------------)
a(------------------------------------------)
f(------------------------------------------)
c(--11-11-11-11-11-11-11-11-9-9-9-9-9-9-9-9-)
g(--11-11-11-11-11-11-11-11-9-9-9-9-9-9-9-9-)
C(--11-11-11-11-11-11-11-11-9-9-9-9-9-9-9-9-)

pre/post-chorus
d(----------)
a(----------)
f(----------)
c(--3-5-7-5-)
g(--3-5-7-5-)
C(--3-5-7-5-)

solo
d(--0-2-5-5-5555555555555555-)
a(---------------------------)
f(---------------------------)
c(---------------------------)
g(---------------------------)
C(---------------------------)
Tap to rate this tab
 
# A B C D E F G H I J K L M N O P Q R S T U V W X Y Z