Song name
# A B C D E F G H I J K L M N O P Q R S T U V W X Y Z

Clockwise - When I Lie tab

Help us improve GuitareTab! Take a short survey!
verse/intro (rythm)
d(-----------------------------------)
a(--xx-5/7-xx-9-999-xx-3-xx-3-333-xx-)
f(--xx-4/6-xx-8-888-xx-2-xx-2-222-xx-)
c(--xx-2/4-xx-6-666-xx-0-xx-0-000-xx-)
g(-----------------------------------)
C(-----------------------------------)

intro(lead)           verse(lead)repeated
d(------------------)(----)(-14-)
a(------------------)(--7-)(----)
f(------------------)(----)(----)
c(--2/4-4/6-6/0-0-0-)(----)(----)
g(------------------)(----)(----)
C(------------------)(----)(----)

pre-chorus(rythm)
d(----------)(-----------)
a(--9-9-9-7-)(--55555555-)
f(--8-8-8-6-)(--44444444-)
c(--6-6-6-4-)(--22222222-)
g(----------)(-----------)
C(----------)(-----------)

pre-chorus(lead)
d(----------------------------------)
a(--9-9-9-7-9-10-7-9-9-9-7-55555555-)
f(----------------------------------)
c(----------------------------------)
g(----------------------------------)
C(----------------------------------)

chorus(rythm)
d(-------------------)
a(--1010101010101010-)
f(---9-9-9-9-9-9-9-9-)
c(---7-7-7-7-7-7-7-7-)
g(-------------------)
C(-------------------)

chorus(lead)(x4)
d(-------10-----10-)
a(--10-9----9-7----)
f(-----------------)
c(-----------------)
g(-----------------)
C(-----------------)

post-chorus(rythm)
d(-------------)
a(--1010107887-)
f(--9-9-9-6776-)
c(--7-7-7-4554-)
g(-------------)
C(-------------)

post-chorus(lead)
d(------------)
a(--777-------)
f(-----979997-)
c(------------)
g(------------)
C(------------)
Related for When I Lie tab