Song name
# A B C D E F G H I J K L M N O P Q R S T U V W X Y Z

Clog And The Quirks - Armbands chords

Highlighted       Show chord diagrams
INTRO

E|-----6--------------6-6-----------------6---------------6-6------------------|
B|---------7----4------------7----4------------6----3------------6-----3-------|
G|-----------------------------------------------------------------------------|
D|-----------------------------------------------------------------------------|
A|-----------------------------------------------------------------------------|
E|-----------------------------------------------------------------------------|

E|-----6--------------6-6-----------------6---------------6--------------------|
B|---------7----4------------7----4------------6----3-----6--------------------|
G|-----------------------------------------------------------------------------|
D|-----------------------------------------------------------------------------|
A|-----------------------------------------------------------------------------|
E|-----------------------------------------------------------------------------|





CHORDS (standard tuning)

INTRO:   Ebm   Bb    Ebm    Bb


Ebm                      Bb                             Ebm
       Last summer I taught you how to swim

                             Bb
You could have drowned

Ebm                                                       Ebm
        Last summer I taught you how to swim

                                            Bb
Your feet could touch the ground



            F                      C                   Bb
And it feels like yesterday we were flying, we were flying

            F                           C                 Bb
Now I have something to say, sick of trying, sick of trying


Ebm    Bb     Ebm     Bb

Ebm                                Bb
       Something tells me that

                         Ebm
This is near the end

                               Bb
But it feels like the start

Ebm                           Bb
       Well I feel like a kill

                   Ebm
But I must refrain

           Bb
It's so hot

Ebm                      Bb                             Ebm
       Last summer I taught you how to swim

                             Bb
You could have drowned

Ebm                                                       Ebm
        Last summer I taught you how to swim

                                            Bb
Your feet could touch the ground



            F                      C                   Bb
And it feels like yesterday we were flying, we were flying

            F                           C                 Bb
Now I have something to say, sick of trying, sick of trying


Eb
Say what you want and I know what you mean

C#
Say what you want and I know what you mean

B                                                                      
Ab        F#
Say what you want and I know what you mean c'mon



            F                      C                   Bb
And it feels like yesterday we were flying, we were flying

            F                           C                 Bb
Now I have something to say, sick of trying, sick of trying


SOLO :

F     C      Bb


End on F
Tap to rate this tab
# A B C D E F G H I J K L M N O P Q R S T U V W X Y Z