Song name
# A B C D E F G H I J K L M N O P Q R S T U V W X Y Z

Clogs - Canon tab

-------------------------------------------------------------------------------
			     Canon - Clogs
-------------------------------------------------------------------------------
Tabbed by: David K
Email: thischarmingman13@gmail.com

Tuning: Standard

It's a very repetitive song with a few nuances. I'll be surprised if many people know this group.

Band website: http://www.clogsmusic.com/

e|---------------------------------------------------------------------------|
B|------------4-3-1---------------------4-3-1----------4-3-1----------4-3-1--|
G|---4-5------------0-----------4-5----------0--4-5---------0--4-5---------0-|
D|-------3---1----------3--1--------3--1-----------3--1-----------3--1-------|
A|-3---------------------------3---------------------------------------------|
E|---------------------------------------------------------------------------|

e|-----------------------------------------------------------------------------|
B|---------4-3-1---------------------------------------------------------------|
G|--4-5---------0-(Repeat this)------------------------------------------------|
D|-----3--1--------------------------------------------------------------------|
A|-----------------------------------------------------------------------------|
E|-----------------------------------------------------------------------------|


| /  slide up
| \  slide down
| h  hammer-on
| p  pull-off
| ~  vibrato
| +  harmonic
| x  Mute note
===============================================================================
Tap to rate this tab
# A B C D E F G H I J K L M N O P Q R S T U V W X Y Z