Song name
# A B C D E F G H I J K L M N O P Q R S T U V W X Y Z

Close Your Eyes - A Song For The Broken tab

-------------------------------------------------------------------------------
			     Song for the Broken - Close Your Eyes
-------------------------------------------------------------------------------
Tabbed by: Jonathan Siltman


Tuning: Drop C

Intro ( Both Guitars )

D|---------------------------------------------------------------------------|
A|---------------------------------------------------------------------------|
F|---------------------------------------------------------------------------|
C|--3-33333333333333-3~------------------------------------------------------|
G|--3-33333333333333-3~------------------------------------------------------|
C|--3-33333333333333-3~------------------------------------------------------|

Verse

 Guitar 1

D|---------------------------------------------------------------------------|
A|---------------------------------------------------------------------------|
F|---------------------------------------------------------------------------|
C|--3~-3~-3~-3~----3--333-333-331-x4----6~-----------------------------------|
G|--3~-3~-3~-3~----3--333-333-331-------6~-----------------------------------|
C|--3~-3~-3~-3~----3--333-333-331-------6~-----------------------------------|

Guitar 2

D|---------------------------------------------------------------------------|
A|---------------------------------------------------------------------------|
F|-----17/18\17-17\15-15/17-------------------------6~-----------------------|
C|-15-----------------------15\13-13\11-11\10-------6~-----------------------|
G|--------------------------------------------------6~-----------------------|
C|---------------------------------------------------------------------------|

Chorus ( Both Guitars )

D|---------------------------------------------------------------------------|
A|---------------------------------------------------------------------------|
F|---------------------------------------------------------------------------|
C|--3----1----6----5---------------------------------------------------------|
G|--3----1----6----5---------------------------------------------------------|
C|--3----1----6----5---------------------------------------------------------|

Post Chorus

D|---------------------------------------------------------------------------|
A|---------------------------------------------------------------------------|
F|---------------------------------------------------------------------------|
C|--3--3-3-3--3-3-3--3-3-1~--------------------------------------------------|
G|--3--3-3-3--3-3-3--3-3-1~--------------------------------------------------|
C|--3--3-3-3--3-3-3--3-3-1~--------------------------------------------------|



Verse
Chorus



D|---------------------------------------------------------------------------|
A|---------------------------------------------------------------------------|
F|---------------------------------------------------------------------------|
C|--6~-----------------------------------------------------------------------|
G|--6~-----------------------------------------------------------------------|
C|--6~-----------------------------------------------------------------------|

Breakdown

D|-------------------------------------------------------------------------------------|
A|-------------------------------------------------------------------------------------|
F|-------------------------------------------------------------------------------------|
C|--33333-3333-333333333-33333-3333-333333333-33333-33-33-33-33-33-33--3-33333333333~--|
G|--33333-3333-333333333-33333-3333-333333333-33333-33-33-33-33-33-33--3-33333333333~--|
C|--33333-3333-333333333-33333-3333-333333333-33333-33-33-33-33-33-33--3-33333333333~--|

Chorus

Ending

D|---------------------------------------------------------------------------|
A|---------------------------------------------------------------------------|
F|---------------------------------------------------------------------------|
C|--3--3--3~-----------------------------------------------------------------|
G|--3--3--3~-----------------------------------------------------------------|
C|--3--3--3~-----------------------------------------------------------------|


************************************

| /   slide up
| \   slide down
| h   hammer-on
| p   pull-off
| ~   vibrato
| +   harmonic
| x   Mute note
| b   Bend
| pb  Pre-bend
| br  Bend release
| pbr Pre-bend release
| brb Bend release bend

************************************
Tap to rate this tab
 
# A B C D E F G H I J K L M N O P Q R S T U V W X Y Z