Song name
# A B C D E F G H I J K L M N O P Q R S T U V W X Y Z

Close Your Eyes - A Song For The Broken tab

-------------------------------------------------------------------------------
			     A Song For The Broken - Close Your Eyes
-------------------------------------------------------------------------------
Tabbed by: Lucas 

http://www.myspace.com/closeyoureyesmusic

Tuning: C# G# C# F# A# D#

Me playing it - http://www.youtube.com/watch?v=CJCXywvaKIw

There's a few parts I'm pretty sure aren't what they play, but sound decent.
Also the strumming is not always gonna be accurate but just what notes should be played.

Intro
Both Guitars
D#|-------------2~------------------------------------------------------------|
A#|-------------5~------------------------------------------------------------|
F#|-------------4~------------------------------------------------------------|
C#|222222222----2~------------------------------------------------------------|
G#|222222222------------------------------------------------------------------|
C#|222222222------------------------------------------------------------------|
   *********

Verse
Guitar 1
D#|---------------------------------------------------------------------------|
A#|---------------------------------------------------------------------------|
F#|---------------------------------------------------------------------------|
C#|----2-222--222--222-0~-----------------------------------------------------|
G#|12\-2-222--222--222-0~-----------------------------------------------------|
C#|12\-2-222--222--222-0~-----------------------------------------------------|

Guitar 2
D#|---------------------------------------------------------------------------|
A#|---------------------------------------------------------------------------|
F#|---16/17\16-16\14-14/16----------------------------------------------------|
C#|14----------------------14\12-12\10-10\9-----------------------------------|
G#|---------------------------------------------------------------------------|
C#|---------------------------------------------------------------------------|

Pre-Chorus
Both Guitars
D#|---------------------------------------------------------------------------|
A#|---------------------------------------------------------------------------|
F#|---------------------------------------------------------------------------|
C#|5~-------------------------------------------------------------------------|
G#|5~-------------------------------------------------------------------------|
C#|5~-------------------------------------------------------------------------|

Chorus
Both Guitars
D#|---------------------------------------------------------------------------|
A#|---------------------------------------------------------------------------|
F#|---------------------------------------------------------------------------|
C#|2--0--5--5-----------------------------------------------------------------|
G#|2--0--5--4-----------------------------------------------------------------|
C#|2--0--5--5-----------------------------------------------------------------|

Verse 2
Guitar 1
D#|---------------------------------------------------------------------------|
A#|---------------------------------------------------------------------------|
F#|---------------------------------------------------------------------------|
C#|2-2-2-2-2-2-2-2-2-0--------------------------------------------------------|
G#|2-2-2-2-2-2-2-2-2-0--------------------------------------------------------|
C#|2-2-2-2-2-2-2-2-2-0--------------------------------------------------------|

Guitar 2
D#|---------------------------------------------------------------------------|
A#|---------------------------------------------------------------------------|
F#|---16/17\16-16\14-14/16----------------------------------------------------|
C#|14----------------------14\12-12\10-10\9-----------------------------------|
G#|---------------------------------------------------------------------------|
C#|---------------------------------------------------------------------------|

Pre-Chorus
Both Guitars
D#|---------------------------------------------------------------------------|
A#|---------------------------------------------------------------------------|
F#|---------------------------------------------------------------------------|
C#|5~-------------------------------------------------------------------------|
G#|5~-------------------------------------------------------------------------|
C#|5~-------------------------------------------------------------------------|

Chorus
Both Guitars
D#|---------------------------------------------------------------------------|
A#|---------------------------------------------------------------------------|
F#|---------------------------------------------------------------------------|
C#|2--0--5--5--------------2*-------------------------------------------------|
G#|2--0--5--4--2-000-2-000----------------------------------------------------|
C#|2--0--5--5--2-000-2-000----------------------------------------------------|               
                 ***   ***

Bridge
D#|---------------------------------------------------------------------------|
A#|---------------------------------------------------------------------------|
F#|---------------------------------------------------------------------------|
C#|2~-------------------------------------------------------------------------|
G#|2~-------------------------------------------------------------------------|
C#|2~-------------------------------------------------------------------------|

Breakdown
D#|---------------------------------------------------------------------------|
A#|---------------------------------------------------------------------------|
F#|---------------------------------------------------------------------------|
C#|---------------------------------------------------------------------------|
G#|2-2-2-2-2-2-2-2-2-2-2-2-2-2-2-2--22-22--22-22-22-22-22-22-22-22------------|
C#|2-2-2-2-2-2-2-2-2-2-2-2-2-2-2-2--22-22--22-22-22-22-22-22-22-22------------| 
   * * * * * * * * * * * * * * * *  ** **  ** ** ** ** ** ** ** **


Pre-Chorus
Both Guitars
D#|---------------------------------------------------------------------------|
A#|---------------------------------------------------------------------------|
F#|---------------------------------------------------------------------------|
C#|5~-------------------------------------------------------------------------|
G#|5~-------------------------------------------------------------------------|
C#|5~-------------------------------------------------------------------------|

Chorus
Both Guitars
D#|---------------------------------------------------------------------------|
A#|---------------------------------------------------------------------------|
F#|---------------------------------------------------------------------------|
C#|2--0--5--5-----------------------------------------------------------------|
G#|2--0--5--4-----------------------------------------------------------------|
C#|2--0--5--5-----------------------------------------------------------------|


************************************

| /   slide up
| \   slide down
| h   hammer-on
| p   pull-off
| ~   vibrato
| +   harmonic
| x   Mute note
| b   Bend
| pb  Pre-bend
| br  Bend release
| pbr Pre-bend release
| brb Bend release bend

************************************
Tap to rate this tab
 
# A B C D E F G H I J K L M N O P Q R S T U V W X Y Z