Close Your Eyes - A Song For The Broken tab

           --------------------------------------------------------
                    Close Your Eyes - Song For The Broken
           --------------------------------------------------------

Tabbed by: LightningLogan
Email: lightning.logan@hotmail.com

ONLY TABBED THE 2ND GUITAR PARTS THAT I COULD FIGURE OUT

Tuning: Drop C#

Intro
Both Guitars
D#|------------------|-2~-|
A#|------------------|-5~-|
F#|------------------|-4~-| 2nd part x4
C#|-2222222222222222-|-2~-|
G#|-2222222222222222-|----|
C#|-2222222222222222-|----|
    ****************

Verse
Guitar 1
D#|-----|--------------------|
A#|-----|--------------------|  Played a total of 4x
F#|-----|--------------------| 
C#|-12\-|-2-222--222--222-0~-|
G#|-12\-|-2-222--222--222-0~-|  1st part played 1st and 3rd time through
C#|-12\-|-2-222--222--222-0~-|

Guitar 2
D#|-----------------------------------------------|  
A#|-----------------------------------------------| Starts 3rd time through
F#|----16/17\16-16\14-----------------------------| Guitar 1's part 
C#|-14----------------14\12-12/14-14/16-16/17-17~-|
G#|-----------------------------------------------| played twice
C#|-----------------------------------------------|

D#|-----------------------------------------------|  
A#|-----------------------------------------------| 
F#|----16/17\16-16\14-----------------------------|  
C#|-14----------------14\12-12/14-14/16-16\14-14~-|
G#|-----------------------------------------------| 
C#|-----------------------------------------------|

Pre-Chorus
Both Guitars
D#|----|
A#|----|
F#|----|
C#|-5~-|
G#|-5~-|
C#|-5~-|

Chorus
Both Guitars
D#|---------------------------------------------------------------------|
A#|---------------------------------------------------------------------|
F#|---------------------------------------------------------------------| x2
C#|-2222222222222222-0000000000000000-5555555555555555-7777777777777777-|
G#|-2222222222222222-0000000000000000-5555555555555555-5555555555555555-|
C#|-2222222222222222-0000000000000000-5555555555555555-4444444444444444-|

Verse 2
Guitar 1
D#|----------------------------|
A#|----------------------------|
F#|----------------------------| x2
C#|-2---2-2-2---2-2-2---2-2-0~-|
G#|-2---2-2-2---2-2-2---2-2-0~-|
C#|-2---2-2-2---2-2-2---2-2-0~-|

Guitar 2
D#|-----------------------------------------------|  
A#|-----------------------------------------------| Starts 2nd time through
F#|----16/17\16-16\14-----------------------------| Guitar 1's part 
C#|-14----------------14\12-12/14-14/16-16/17-17~-|
G#|-----------------------------------------------| played twice
C#|-----------------------------------------------|

D#|-----------------------------------------------|  
A#|-----------------------------------------------| 
F#|----16/17\16-16\14-----------------------------| skip this part on the 
C#|-14----------------14\12-12/14-14/16-16\14-14~-| 2nd time through it
G#|-----------------------------------------------| 
C#|-----------------------------------------------|

Pre-Chorus

D#|----|
A#|----|
F#|----|
C#|-5~-|
G#|-5~-|
C#|-5~-|

Chorus
Both Guitars
D#|-----------------------------------------------------------------------------|
A#|-----------------------------------------------------------------------------|
F#|-----------------------------------------------------------------------------|
C#|-2222222222222222-0000000000000000-5555555555555555-77777777--------------2*-|
G#|-2222222222222222-0000000000000000-5555555555555555-55555555-2-000-2-000-----|
C#|-2222222222222222-0000000000000000-5555555555555555-44444444-2-000-2-000-----|               
                                                                  ***   ***

D#|---------------------------------------------------------------------|
A#|---------------------------------------------------------------------|
F#|---------------------------------------------------------------------| 
C#|-2222222222222222-0000000000000000-5555555555555555-7777777777777777-|
G#|-2222222222222222-0000000000000000-5555555555555555-5555555555555555-|
C#|-2222222222222222-0000000000000000-5555555555555555-4444444444444444-|

Bridge
Both Guitars
D#|------------------------------------|
A#|------------------------------------|
F#|------------------------------------|
C#|-2~--2~--2~--2~--2~--2~--2~--2~--2~-| 
G#|-2~--2~--2~--2~--2~--2~--2~--2~--2~-|
C#|-2~--2~--2~--2~--2~--2~--2~--2~--2~-|

Breakdown
Both Guitars
D#|----------------------------------------|
A#|----------------------------------------|
F#|----------------------------------------| x2
C#|-2-2-2-2-2--2-2-2-2--2-2--2-2-2-2-2-2-2-|
G#|-2-2-2-2-2--2-2-2-2--2-2--2-2-2-2-2-2-2-|
C#|-2-2-2-2-2--2-2-2-2--2-2--2-2-2-2-2-2-2-| 
    * * * * *  * * * *  * *  * * * * * * * 

D#|-------------------------------------|
A#|-------------------------------------|
F#|-------------------------------------|
C#|-22-22---22-22---22-22--22-22--22-22-|
G#|-22-22---22-22---22-22--22-22--22-22-|
C#|-22-22---22-22---22-22--22-22--22-22-| 
    ** **   ** **   ** **  ** **  ** **

D#|---------------------------------------------------------|
A#|---------------------------------------------------------|
F#|---------------------------------------------------------|
C#|-22-22---22-22---22-22--22-22--2-2--2-2-2-2-2-2-2--2-2-2-|
G#|-22-22---22-22---22-22--22-22--2-2--2-2-2-2-2-2-2--2-2-2-|
C#|-22-22---22-22---22-22--22-22--2-2--2-2-2-2-2-2-2--2-2-2-| 
    ** **   ** **   ** **  ** **  * *  * * * * * * *  * * *

Pre-Chorus
Both Guitars
D#|----|
A#|----|
F#|----|
C#|-5~-|
G#|-5~-|
C#|-5~-|

Chorus
Both Guitars
D#|---------------------------------------------------------------------|
A#|---------------------------------------------------------------------|
F#|---------------------------------------------------------------------| x2
C#|-2222222222222222-0000000000000000-5555555555555555-7777777777777777-|
G#|-2222222222222222-0000000000000000-5555555555555555-5555555555555555-|
C#|-2222222222222222-0000000000000000-5555555555555555-4444444444444444-|

Outro
Guitar 1
D#|----------|
A#|----------|
F#|----------|
C#|-2--2--2~-|
G#|-2--2--2~-|
C#|-2--2--2~-|
          *

************************************

| /   slide up
| \   slide down
| h   hammer-on
| p   pull-off
| ~   vibrato
| +   harmonic
| x   Mute note
| b   Bend
| pb  Pre-bend
| br  Bend release
| pbr Pre-bend release
| brb Bend release bend

************************************
Tap to rate this tab
 
# A B C D E F G H I J K L M N O P Q R S T U V W X Y Z