Song name
# A B C D E F G H I J K L M N O P Q R S T U V W X Y Z

Close Your Eyes - Valleys tab

Tuning: Drop C#

INTRO
|-----------------------------------------------------------------------------|
|--7-9-10-7-10-7-10~----------------------------------------------------------|
|-------------------------REPEAT AS NEEDED------------------------------------|
|-----------------------------------------------------------------------------|
|-----------------------------------------------------------------------------|
|-----------------------------------------------------------------------------|

Verse
|-----------------------------------------------------|
|-----------------------------------------------------|
|-----------------------------------------------------|
|--4-44-xxx------666777-0-00-xxx-----111111-999-------|
|--4-44-xxx-x3---666777-0-00-xxx-x3-------------------|
|--4-44-xxx------666777-0-00-xxx-----9-9-9--777-------|

Those are 11's ^

|-----------------------------------------------------------------------------|
|-----------------------------------------------------------------------------|
|-----------------------------------------------------------------------------|
|--4-44-xxx-----44444--111111-999-777-666-------------------------------------|
|--4-44-xxx-x3--44444---------------------------------------------------------|
|--4-44-xxx-----22222--9-9-9--777-555-444-------------------------------------|

Chorus

|-----------------------------------------------------------------------------|
|-----------------------------------------------------------------------------|
|-----------------------------------------------------------------------------|
|-----------------------------------------------------------------------------|
|-----------------------------------------------------------------------------|
|--00000022244444444----------------------------------------------------------|

Thats essentially it. same chords throughout the rest of the song
Tap to rate this tab
# A B C D E F G H I J K L M N O P Q R S T U V W X Y Z