Song name
# A B C D E F G H I J K L M N O P Q R S T U V W X Y Z

Close Your Eyes - Valleys tab

So I know that there's a couple other copies of this song, but for those of us too lazy 
to download TuxGuitar and unsatisfied with incomplete tabs, here is (my opinion) of a 
complete "Valleys" tab. Cheers, and if you make a cover, be sure to link here!

Tuning: Drop Db/C#

Guitar 1

INTRO
|-------------------------|
|--7h9h10~---10~----------|
|---------h9--------------|
|-------------------------|
|-------------------------| (repeat)
|-------------------------|

Verse
|------------------------------------------------------|
|------------------------------------------------------|
|-------------------------------------1111-9999--------|
|--4-44-xxx------66-7777-0-00-xxx-----x-x--xxxx--------|
|--4-44-xxx-x3---66-7777-0-00-xxx-x3--9-9--7777--------|
|--4-44-xxx------66-7777-0-00-xxx----------------------|


|-----------------------------------------------------------------------------|
|-----------------------------------------------------------------------------|
|-------------------------------1111-9999-77--6666----------------------------|
|--4-44-xxx----66-7777-99999999-x-x--xxxx-xx--xxxx----------------------------|
|--4-44-xxx-x3-66-7777-99999999-9-9--7777-55--4444----------------------------|
|--4-44-xxx----66-7777-99999999-----------------------------------------------|

|------------------------------------------------------|
|------------------------------------------------------|
|-------------------------------------1111-9999--------|
|--4-44-xxx------66-7777-0-00-xxx-----x-x--xxxx--------|
|--4-44-xxx-x3---66-7777-0-00-xxx-x3--9-9--7777--------|
|--4-44-xxx------66-7777-0-00-xxx----------------------|


|-----------------------------------------------------------------------------|
|-----------------------------------------------------------------------------|
|-------------------------------1111-9999-------------------------------------|
|--4-44-xxx----66-7777-99999999-x-x--xxxx-2-22--------------------------------|
|--4-44-xxx-x3-66-7777-99999999-9-9--7777-2-22--------------------------------|
|--4-44-xxx----66-7777-99999999-----------2-22--------------------------------|

Chorus

|------------------------------------------------------------------------------|
|------------------------------------------------------------------------------|
|--------------------------------------777777777777----------------------------|
|--000000000000-2-22-44444444-44444444-777777777777-2-22-44444444-44444444-6-6-|
|--000000000000-2-22-44444444-44444444-555555555555-2-22-44444444-44444444-6-6-|
|--000000000000-2-22-44444444-44444444--------------2-22-44444444-44444444-6-6-|

Verse 2

(BASS)

Guitar 1 PICK SLIDE

|------------------------------------------------------|
|------------------------------------------------------|
|-------------------------------------1111-9999--------|
|--4-44-xxx------66-7777-0-00-xxx-----x-x--xxxx--------|
|--4-44-xxx-x3---66-7777-0-00-xxx-x3--9-9--7777--------|
|--4-44-xxx------66-7777-0-00-xxx----------------------|


|-----------------------------------------------------------------------------|
|-----------------------------------------------------------------------------|
|-------------------------------1111-9999-------------------------------------|
|--4-44-xxx----66-7777-99999999-x-x--xxxx-2-22--------------------------------|
|--4-44-xxx-x3-66-7777-99999999-9-9--7777-2-22--------------------------------|
|--4-44-xxx----66-7777-99999999-----------2-22--------------------------------|

Chorus

|------------------------------------------------------------------------------|
|------------------------------------------------------------------------------|
|--------------------------------------777777777777----------------------------|
|--000000000000-2-22-44444444-44444444-777777777777-2-22-44444444-44444444-6-6-|
|--000000000000-2-22-44444444-44444444-555555555555-2-22-44444444-44444444-6-6-|
|--000000000000-2-22-44444444-44444444--------------2-22-44444444-44444444-6-6-| (x2)

INTRO (Bridge)

Chorus

|------------------------------------------------------------------------------|
|------------------------------------------------------------------------------|
|--------------------------------------777777777777----------------------------|
|--000000000000-2-22-44444444-44444444-777777777777-2-22-44444444-44444444-6-6-|
|--000000000000-2-22-44444444-44444444-555555555555-2-22-44444444-44444444-6-6-|
|--000000000000-2-22-44444444-44444444--------------2-22-44444444-44444444-6-6-| (x2)

End

|----|
|----|
|----|
|-0~-|
|-0~-|
|-0~-|

Guitar 2

INTRO
|-------------------|
|-------------------|
|-------------------|
|-9s11s6~-6s9-9s11--|
|-x-x--x--x-x-x-x---|
|-7s9s-4~-4s7-7s9---|
Chorus
|-------------------|
|-------------------|
|-------------------|
|-14-14-14-14-14-14-|
|-x--x--x--x--x--x--|
|-12-12-12-12-12-12-|


Bridge

|-------|
|-------|
|-------|
|-0~-4~-|
|-0~-4~-|
|-0~-4~-| (repeat as necessary)

End

|-------------------------|
|--7h9h10~---10~----------|
|---------h9--------------|
|-------------------------|
|-------------------------| (repeat)
|-------------------------|
Tap to rate this tab
# A B C D E F G H I J K L M N O P Q R S T U V W X Y Z