Song name
# A B C D E F G H I J K L M N O P Q R S T U V W X Y Z

Closed Heart Surgery - Alone In Your Glass House tab

e|---------------------------------------------|
B|---------------------------------------------|
G|----11------11-------9-------7---------9/11--|
D|0-0----0-0------0-0-----0-0-------0-0--------|
A|---------------------------------------------|
E|---------------------------------------------|

|e|-------------------------------------------------------|
B|--------------------------------------------------------|
G|------11-------11----------------9---------------9------|
D|-9-9------9-9------9-9/7---7-7-------7-------7-------7--|
A|-----------------------------------------0--------------|
E|--------------------------------------------------------|
Tap to rate this tab
 
# A B C D E F G H I J K L M N O P Q R S T U V W X Y Z