Song name
# A B C D E F G H I J K L M N O P Q R S T U V W X Y Z

Closehead - Berdiri Teman tab

Song       : Berdiri Teman
Artist     : Closehead
Tabbed by  : yoos ( yoosyoes.blogspot.com


Fig1
e|--------------------------------------------------------------------------------|
B|--5---5-8-6-5-6h8p6p5---6---6-8-6-5-6/8---5---5-8-6-5-5/6-----------------------|
G|----5---------------------5-----------------5---------------7-4-5-7-4-5-7--5h7--|
D|--------------------------------------------------------------------------------|
A|--------------------------------------------------------------------------------|
E|--------------------------------------------------------------------------------|

Fig2
e|---------------------------------------------------------------------------|
B|--5---5-8-6-5-6h8p6p5---6---6-8-6-5-5/6------------------------------------|
G|----5---------------------5-------------7-4-5-7-4-5-7---4h5-7-4-5-7-4-5-7--|
D|---------------------------------------------------------------------------|
A|---------------------------------------------------------------------------|
E|---------------------------------------------------------------------------|

Fig3
e|---------------------------------------|
B|--6p5-6-----/10-----\6-----/8-----/8---|
G|------------/9------\5-----/9-----/7---|
D|---------------------------------------|
A|---------------------------------------|
E|---------------------------------------|

Fig4
e|-------------------------------------------|
B|-------------------------------------------|
G|-------------------------------------------|
D|--10----9----7----5-----10----9----7----5--|
A|-------------------------------------------|
E|--8-----7----5----3-----8-----7----5----3--|

Fig5
e|---------8-7---------------------------------------------------------|
B|--8----------10-8----------------------------8-----------------------|
G|----9-------------9----10-9-7--9------7-9-10---9---------------------|
D|------10------------10-----------10-7------------10------------------|
A|---------------------------------------------------------------------|
E|---------------------------------------------------------------------|


CHORD

B5/C5
B5/C5

Fig1
C5 F5 C5 G5

Fig2
A5 B5 C5

A5       F5       C5       G5
Kering kerontang jalan yang terbentang
                           Fig3
A5       F5       C5       G5
Teka-teki hidup apalagi ini
A5       F5       C5       G5
Hati pun melemah saat kan kembali 
Fig4
F5
pulang

A5       F5       C5       G5
Tak usah berharap lebih tuk berlari
A5       F5       C5       G5
Mungkin hari ini tak pernah kembali
A5       F5       C5       G5
Berjalanlah perlahan menyelesaikan 
Fig4
F5
hari Hari...

Fig1
C5            F5
Jangan kau jadikan satu kenangan 
C5            G5
yang memilukan Berdiri teman
Fig1
E5            F5
Jalan begitu banyak terbentang
C5            G5
Jangan kau lewatkan tanpa harapan
Fig1
A5 B5 C5
Berdiri teman
Fig2
A5 B5 C5
Dengan harapan Berdiri teman

Fig5
C5 F5 C5 G5 A5 B5 C5

A5       F5       C5       G5
Tak usah berharap lebih tuk berlari
A5       F5       C5       G5
Mungkin hari ini tak pernah kembali
A5       F5       C5       G5
Berjalanlah perlahan menyelesaikan hari
Fig4
F5
Hari... hari..

A5       F5       C5
Jangan jadikan kenangan
A5       F5       C5
Teka teki hidup yang nyata
A5       F5       C5
Jangan jadikan kenangan
A5       F5       C5
Teruslah berjalan perlahan

Fig1
C5            F5
Jangan kau jadikan satu kenangan 
C5            G5
yang memilukan Berdiri teman
Fig1
E5            F5
Jalan begitu banyak terbentang
C5            G5
Jangan kau lewatkan tanpa harapan
Fig1
A5 B5 C5
Berdiri teman
Fig2
A5 B5 C5
Dengan harapan Berdiri teman raih harapan

Fig1
C5            F5
Jangan kau jadikan satu kenangan 
C5            G5
yang memilukan Berdiri teman
Fig1
E5            F5
Jalan begitu banyak terbentang
Fig1
C5            G5
Jangan kau lewatkan tanpa harapan
Fig1
A5 B5 C5
Berdiri teman
A5 B5 C5
Dengan harapan Berdiri teman

A5 
Tap to rate this tab
 
# A B C D E F G H I J K L M N O P Q R S T U V W X Y Z