Song name
# A B C D E F G H I J K L M N O P Q R S T U V W X Y Z

Closehead - Kekasih Sejatiku Adalah Kesunyian tab

Song      : Kekasih Sejatiku Adalah Kesunyian
Artist    : Closehead
Tabbed by : yoos (yoosyoes.blogspot.com)



Fig1
e|---------------------------------------------------------|
B|---------------------------------------------------------|
G|---------------------------------------------------------|
D|--3--0-1-3---3--3-3-1-1-0-0---3--0-1-3---3--3-3-1-1-0-0--|
A|--1----------3----------------1----------3---------------|
E|-------------1---------------------------1---------------|
       pm.                         pm.

Fig2
e|-------------------------------------------------|
B|-------------------------------------------------|
G|-----0-2-3------3-3-2-2-3-3---3--3-3--3--3--3-3--|
D|--5----------3----------------1--1-1--1--1--1-1--|
A|--5----------3-----------------------------------|
E|--3----------1-----------------------------------|
       pm.

Fig2 Note: chord yg terakhir sama dengan D#5, yoos pake yang ini
biar pindahnya ga jauh, takut kulit jari sobek gara2 kegesek senar :) 


Fig3
e|-----6-----(7)-----(7)-----(7)-----(7)--|
B|--6-----6------(7)-----(7)-----(7)------|
G|----------------------------------------|
D|----------------------------------------|
A|----------------------------------------|
E|----------------------------------------|

Fig3 Note: yang dalam kurung jangan ditekan, cukup disentuh...
yoos belum tau ini pake notasi apa


CHORD

Fig1
A#5 F5 A#5 F5
Fig2
G5 F5 D#5

Fig1
A#5 F5 A#5 F5
Fig2
G5 F5 D#5

A#5      F5       D#5      A#5
kekasih sejatiku adalah kesunyian
D#5      A#5      F5
di dalam kegelapan yang kuingin 
D#5      A#5
menjadi terang kembali

Fig1
A#5 F5

A#5      F5       D#5      A#5
merasa kehilangan hanyalah perasaan
D#5      A#5      F5
dalam kesendirian yang kuingin
D#5      A#5
sosok terangmu kembali

Fig1
A#5 F5

A#5      F5       A#5      F5
semua langkahku kan kuraih
G5       F5       D#5
saat ku terang kembali

Fig1
A#5 F5 A#5 F5
Fig2
G5 F5 D#5

A#5      F5       D#5      A#5
kekasih sejatiku adalah kesunyian
D#5      A#5      F5
di dalam kegelapan yang kuingin 
D#5      A#5
menjadi terang kembali

Fig1
A#5 F5

Fig3      
A#5 D#5   4x

A#5      F5       A#5      F5
semua langkahku kan kuraih
G5       F5       D#5
saat ku terang kembali

A#5      F5       A#5      F5
semua langkahku kan kuraih
G5       F5       D#5
saat ku terang kembali

C5       D5       D#5      E5
dulu kakiku hanya beralaskan setapak tanah
C5       D5       D#5      E5
kepalaku pun hanya beratapkan langit kelam
C5       D5       D#5      E5
kekasih sejatipun hanyalah kesunyian
C5       D5       D#5      E5
di dalam kegelapan yang kuinginkan

A#5      F5       A#5      F5
semua langkahku kan kuraih
G5       F5       D#5
saat ku terang kembali
Tap to rate this tab
 
# A B C D E F G H I J K L M N O P Q R S T U V W X Y Z