Closehead - Melawan Waktu tab

Song Title   : Melawan Waktu
Artist       : Closehead
Tabbed by    : yoos (yoosyoes.blogspot.com)


@intro
e|-----------------------------5--|
B|-----5------5-------5------5----|
G|--------6h7------------6h7------|
D|--7-----------7--7--------------|
A|--------------------------------|
E|--------------------------------|

@solo
e|----------------------------------------------------------------|
B|--7~-7~-7~--5h7p5--------------------------------7---------7----|
G|--------------------6-6----------6-------------6---9-----6---9--|
D|------------------------9-7--7-9---9-7-7---7h9-------7h9--------|
A|----------------------------------------------------------------|
E|----------------------------------------------------------------|

e|-----------------------------7-----7-----7-----7--|
B|--------------------------9-----9-----9-----9-----|
G|--6-6----------6----------------------------------|
D|------9-7--7-9---9-7-7----------------------------|
A|--------------------------------------------------|
E|--------------------------------------------------|


CHORD

(intro)
A5 D5 F#5 D5

A5                             D5
berlari ku sembunyi dari waktu
F#5                            D5
berjalan sungguh aku tak mampu
A5                             D5
lagi-lagi ku di kejar waktu
F#5                  E5
entah apa aku mampu

            A5 D5
harus melewati
                A5 E5
semua yang berarti
            F#5 E5
untuk kehidupan
               D5
telah aku nikmati

A5 D5 F#5 D5

A5                             D5
mungkin hanya sementara waktu
F#5                            D5
untuk bersahabat dengan waktu
A5                             D5
tak ingin lagi ku di kejar waktu
F#5
harus yakin aku mampu
E5
harus yakin aku mampu
E5
(aku yakin pasti mampu)

            A5 D5
akan ku lewati
               A5 E5
meski tak berarti
            F#5 E5
walau kehidupan
             D5
hanya sementara

            A5 D5
akan ku lewati
               A5 E5
meski tak berarti
            F#5 E5
walau kehidupan
             D5
hanya sementara

B5             C#5
hatiku masih besar
D5               A5
masih mampu bertahan
B5            C#5
hatiku malu besar
D5               E5
masih mampu berjalan

            A5 D5
akan ku lewati
               A5 E5
meski tak berarti
            F#5 E5
walau kehidupan
             D5
hanya sementara

            A5 D5
akan ku lewati
               A5 E5
meski tak berarti
            F#5 E5
walau kehidupan
             D5
hanya sementara

A5 D5 F#5 D5
Tap to rate this tab
 
# A B C D E F G H I J K L M N O P Q R S T U V W X Y Z