Song name
# A B C D E F G H I J K L M N O P Q R S T U V W X Y Z

Closer 2 Closure - Fall Down Fall Down tab

(/) Slide Up  (\) Slide Down  (h) Hammer On  (p) Pull Off  (b) Bend (r) Release (v) Vibrato

Hey. This is kucikaz, with his second tab.
This song is Fall Down, Fall Down by Closer 2 Closure (ex Kellin Quinn).
Song is here: https://www.youtube.com/watch?v=ho4U2_bwUd8
The cover I took the tabs from: https://www.youtube.com/watch?v=J6mEHfqlBwA

Capo 5th, standard tuning.

Intro

E|--------------------------------------------------|
B|--------------------------------------------------|
G|--------------------------------------0-----------|
D|--5-----------5-----------5-----------4-----------|
A|-----7--5-----------5--------7--5-----------------|
E|-----------7-----7-----------------7--------------|


E|--------------------------------------------------|
B|--------------------------------------------------|
G|--------------------------------------------------|
D|--5-----------5-----------5-----------5-----4/5---|
A|-----7--5-----------5--------7--5--------5--------|
E|-----------7-----7-----------------7--------------|

Verse x2

E|----0----0----0----0------0----0----0--------------------------|
B|----0----0----3----0------0----0----3----3--3--3--3--3--1--0---|
G|----0----0----0----0------0----0----0--------------------------|
D|----2----4----2----4------2----4----2--------------------------|  x2
A|----2----0----3----0------2----0----3--------------------------|
E|----0----2----0----2------0----2----0--------------------------|


E|----0-----------------0---------------------0-----------------0--|
B|----0-----------------0---------------------0-----------------0--|
G|----0----0h2--2--0----0----0h2--2--4--0-----0----0h2--2--0----0--|
D|----2-----------------4---------------------2-----------------4--|  x2
A|----3-----------------5---------------------3-----------------5--|
E|----0-----------------0---------------------0-----------------0--|

Prechorus x2

E|----3------------2-------------|
B|----3------------3-------------|
G|----0------------0-------------|
D|----2------------0-------------|
A|----3------------3-------------|
E|----0------------0-------------|

Chorus x2

E|----3----3----3----2--------3----3----3-----------------------|
B|----3----3----3----3--------3----3----3-----------------------|
G|----0----2----0----2--------0----2----0-----------------------|
D|----2----0----2----0--------2----0----2-----------------------|
A|----2----0----3----x--------2----0----3-----------------------|
E|----0----2----0----x--------0----2----0-----------------------|

2nd Verse

E|----0----0----0----0------0----0----0---------------------------|
B|----0----0----3----0------0----0----3----3--3--3--3--3--1--0----|
G|----0----0----0----0------0----0----0---------------------------|
D|----2----4----2----4------2----4----2---------------------------|   x2
A|----2----0----3----0------2----0----3---------------------------|
E|----0----2----0----2------0----2----0---------------------------|


E|----0-----------------0---------------------0-----------------0--|
B|----0-----------------0---------------------0-----------------0--|
G|----0----0h2--2--0----0----0h2--2--4--0-----0----0h2--2--0----0--|
D|----2-----------------4---------------------2-----------------4--|  x2
A|----3-----------------5---------------------3-----------------5--|
E|----0-----------------0---------------------0-----------------0--|

2nd Prechorus x2

E|----3------------2-------------|
B|----3------------3-------------|
G|----0------------0-------------|
D|----2------------0-------------|
A|----3------------3-------------|
E|----0------------0-------------|

2nd Chorus x4

      Em   F#   C    D        Em   F#   C
E|----3----3----3----2--------3----3----3-----------------------|
B|----3----3----3----3--------3----3----3-----------------------|
G|----0----2----0----2--------0----2----0-----------------------|
D|----2----0----2----0--------2----0----2-----------------------|
A|----2----0----3----x--------2----0----3-----------------------|
E|----0----2----0----x--------0----2----0-----------------------|

Bridge x2

      C            C
E|----3------------2-------------|
B|----3------------3-------------|
G|----0------------0-------------|
D|----2------------0-------------|
A|----3------------3-------------|
E|----0------------0-------------|

Outro x2 (3/4)

      E    F#   C    C
E|----3----3----3----3----|
B|----3----3----3----3----|
G|----0----2----0----0----|
D|----2----0----2----2----|
A|----2----0----3----3----|
E|----0----2----0----0----|

Last 5 chords                   End chord

E|----3----2----0----2----|   |----3----|
B|----3----3----3----3----|   |----3----|
G|----0----0----0----0----|   |----0----|
D|----2----0----2----0----|   |----2----|
A|----3----3----3----3----|   |----2----|
E|----0----0----0----0----|   |----0----|
Tap to rate this tab
# A B C D E F G H I J K L M N O P Q R S T U V W X Y Z